Oops, an error
Loading. Please wait.

You Make Me Feel Like A Natural Woman Bass Tab

82 views 18 this week
no commentswrite comment
1 2 3 4 5
3 more votes to show rating
add to favorites
launch autoscroll
font size
0
reset
guitar tuner
Autoscroll
slow
fast
+/-
esc
set tempo
stop
Help us to improve Ultimate-Guitar.com Take our survey!
×
Author
Difficulty
novice
About this tab version
This song was co-written by Carole King and Gerry Goffin. Was this info helpful? Yes No
This one is easier than it looks. 3 beats per bar. 

 [Verse]Look   morn          I           spired            
G|------------|------------|------------|------------|
D|------------|------------|------------|0-----0-----|
A|0-----0---0-|------------|------------|--------4-2-|
E|------------|4-----4---4-|3-----3---3-|------------|

G|------------|------------|------------|------------|
D|------------|------------|------------|0-----0-----|
A|0-----0---0-|------------|------------|--------4-2-|
E|------------|4-----4---4-|3-----3---3-|------------|

G|------------|------------|------------|------------|
D|------------|------------|------------|------------|
A|2-----4---2-|2-----4---2-|2-----4---2-|2-----------|
E|------------|------------|------------|------0-0-0-|

  feel  you    feel  you
G|------------|------------|------------|------------|
D|------0-----|------0-----|--4-2-------|------------|
A|0-----------|0-----------|0-----4-2-0-|2-----------|
E|------------|------------|------------|------0-0-0-|

  [Verse]
G|------------|------------|------------|------------|
D|------------|------------|------------|0-----0-----|
A|0-----0---0-|------------|------------|--------4-2-|
E|------------|4-----4---4-|3-----3---3-|------------|

G|------------|------------|------------|------------|
D|------------|------------|------------|0-----0-----|
A|0-----0---0-|------------|------------|--------4-2-|
E|------------|4-----4---4-|3-----3---3-|------------|

G|------------|------------|------------|------------|
D|------------|------------|------------|------------|
A|2-----4---2-|2-----4---2-|2-----4---2-|2-----------|
E|------------|------------|------------|------0-0-0-|

  feel  you    feel  you
G|------------|------------|------------|------------|
D|------0-----|------0-----|--4-2-------|------------|
A|0-----------|0-----------|0-----4-2-0-|2-----------|
E|------------|------------|------------|------0-0-0-|

  [Outro]
G|------------|------------|------------|------------|
D|------------|------------|------------|------------|
A|0---0-0---0-|------------|0---0-0---0-|----------0-|
E|------------|0-0-0-0-0-0-|------------|0-0-0-0-0---|

G|------------|------------|------------|------------|
D|0-----0---0-|------------|0-----------|------------|
A|------------|0-0-0-0-0-0-|------4---4-|2---2-------|
E|------------|------------|------------|------0-0-0-|

G|------------|------------|------------|------------|
D|------0-0-4-|------------|--4-2-------|------------|
A|0-----------|0-----0-----|0-----4-2-0-|2-----------|
E|------------|------------|------------|------0-0-0-|

G|------------|------------|------------|------------|
D|------0-0-4-|------------|--4-2-------|------------|
A|0-----------|0-----0-----|0-----4-2-0-|2-----------|
E|------------|------------|------------|------0-0-0-|

G|------------|------------|------------|------------|
D|------0-0-4-|------------|--4-2-------|------------|
A|0-----------|0-----0-----|0-----4-2-0-|2-----------|
E|------------|------------|------------|------0-----|

G|------------|------------|
D|------------|------------|
A|0-----------|------------|
E|------------|------------|

Tip: If the timing is difficult, rock your head 
forward and back. Beat 1 is all the way forward.
Beat 2 1/2 is all the way foward again.
Suggest correction
Give kudos to tab author, rate the tab!
1 2 3 4 5
comments
print report bad tab
guest
You may want to rate the tab now too:
select rating
Wanna post a correction for this tab? Suggest correction