Oops, an error
Loading. Please wait.

Im Not Over Tab

version 1
version 1

Whole song

Interactive

Video

23,053 views 1 this week
1 commentread comment
1 2 3 4 5
please rate
add to favorites
launch autoscroll
font size
0
reset
how to read this tab
guitar tuner
Autoscroll
slow
fast
+/-
esc
set tempo
stop
Help us to improve Ultimate-Guitar.com Take our survey!
×
Author
Difficulty
-------------------------------------------------------------------------------
                        I'M NOT OVER - Carolina Liar
-------------------------------------------------------------------------------

Tabbed by: Spencer B.
Email:

Tuning:Standard

UPDATE 6/24/08: I re-tabbed part of the bridge.

UPDATE 6/26/08: Retabbed the whole song (just to make it more organized)


Intro:

Clean Guitar:

|---------------------|---------------------|
|---------------------|---------------------|
|---------------------|---------------------|
|-11-11--11-11-11--11-|-11-11--11-11-11--11-|
|-11-11--11-11-11--11-|-11-11--11-11-11--11-|
|--9--9---9--9--9---9-|--9--9---9--9--9---9-|

Verse:

Clean Guitar:

||----------------------|---------------|---------------|----------------------||
||o---------------------|---------------|---------------|---------------------o||
||----------------------|-9-9--9-9-9--9-|---------------|-11-11--11-11-11--11--||
||--11-11--11-11-11--11-|-9-9--9-9-9--9-|-9-9--9-9-9--9-|-11-11--11-11-11--11--||
||o-11-11--11-11-11--11-|-7-7--7-7-7--7-|-9-9--9-9-9--9-|--9--9---9--9--9---9-o||
||---9--9---9--9--9---9-|---------------|-7-7--7-7-7--7-|----------------------||

Slightly Distorted Guitar:

||--12-12-12-12-12-12-12-12--||-11-11-11-11-11-11-11-11-|-------------------------|
||---------------------------||-------------------------|-11-11-11-11-11-11-11-11-|
||o-------------------------o||-------------------------|-------------------------|
||o-------------------------o||-------------------------|-------------------------|
||---------------------------||-------------------------|-------------------------|
||---------------------------||-------------------------|-------------------------|

Chorus:

Rhythm Guitar:

 C#5   E5  B5  F#5
|----|---|---|----|
|----|---|---|----|
|----|-9-|---|-11-|
|-11-|-9-|-9-|-11-|
|-11-|-7-|-9-|--9-|
|--9-|---|-7-|----|

Lead Guitar:

|------------------------------|-----------------------|
|--14----12------14----12------|-14---12-14-16-14-12---|
|-----------(11)----------(11)-|-----------------------|
|------------------------------|-----------------------|
|------------------------------|-----------------------|
|------------------------------|-----------------------|


Verse 2: (The only difference is one distorted guitar)

e|---------------------|---------------|---------------------|---------------------|
B|---------------------|---------------|---------------------|---------------------|
G|---------------------|---------------|-11-11--11-11-11--11-|---------------------|
D|-11-11--11-11-11--11-|-9-9--9-9-9--9-|---------------------|-11-11--11-11-11--11-|
A|---------------------|---------------|---------------------|---------------------|
E|---------------------|---------------|---------------------|---------------------|

Bridge:

Rhythm Guitar:

|---------------------------------|------------------------|
|---------------------------------|------------------------|
|---------------------------------|-9--9--9--9--9--9--9--9-|
|-11--11--11--11--11--11--11--11--|------------------------|
|---------------------------------|-7--7--7--7--7--7--7--7-|
|--9---9---9---9---9---9---9---9--|------------------------|

|-------------------------|-------------------------|
|-------------------------|-------------------------|
|-------------------------|-------------------------|
|-9--9--9--9--9--9--9--9--|--8--8--8--8--8--8--8--8-|
|-------------------------|-------------------------|
|-7--7--7--7--7--7--7--7--|--6--6--6--6--6--6--6--6-|



||----------------------------------|------------------------|
||----------------------------------|------------------------|
||o---------------------------------|-9--9--9--9--9--9--9--9-|
||o-11--11--11--11--11--11--11--11--|------------------------|
||----------------------------------|-7--7--7--7--7--7--7--7-|
||---9---9---9---9---9---9---9---9--|------------------------|

|-------------------------|---------------------------------||
|-------------------------|---------------------------------||
|-------------------------|-11--11--11--11--11--11--11--11-o||
|-9--9--9--9--9--9--9--9--|--------------------------------o||
|-------------------------|--9---9---9---9---9---9---9---9--||
|-7--7--7--7--7--7--7--7--|---------------------------------||

An Organ comes in at the repeat sign ^^

e|---------|--------|--------|---------|
B|---------|--------|--------|---------|
G|---------|-9---9--|--------|-11--11--|
D|-11---11-|-9---9--|-9---9--|-11--11--|
A|-11---11-|-7---7--|-9---9--|--9---9--|
E|--9----9-|--------|-7---7--|---------|

Out-Chorus: (2x as long as 2nd Chorus)

It's the same as the other choruses, except for the last 8 measures:

A third guitar comes in:

|-----------------------------|-----------------------|
|-----------------------------|-----------------------|
|-----------------------------|-----------------------|
|-11-----9------11-----9------|-11----9-11-13-11--9---|
|------------9-------------9--|-----------------------|
|-----------------------------|-----------------------|

|---------------------------|-------------------------|
|---------------------------|-------------------------|
|---------------------------|-------------------------|
|-11----9------11----9------|-11-----9-11-13----------|
|-----------9------------9--|-------------------------|
|---------------------------|-------------------------|

Song Structure:

Intro
Verse
Chorus
Verse 2
Chorus
Bridge
Out-Chorus

| /  slide up
| \  slide down
| h  hammer-on
| p  pull-off
| ~  vibrato
| +  harmonic
| x  Mute note
===============================================================================
Suggest correction
Give kudos to tab author, rate the tab!
1 2 3 4 5
comments
print report bad tab
1 comment total.
0 reply
ballin'4life 10 wrote on June 25 2008, 11:05 pm

it all sounds pretty good but confusing as hell im sure there's not five guitar parts unless gtr is supposed to mean something different in which case you should explain your organization

guest
You may want to rate the tab now too:
select rating
Please do not post tabs as comments. Select "correction" instead!