Oops, an error
Loading. Please wait.

Show Me What Im Looking For Tab

version 2
version 2

Solo

Whole song

4,964 views 3 this week
no commentswrite comment
1 2 3 4 5
accurate
x 2
add to favorites
launch autoscroll
font size
0
reset
how to read this tab
guitar tuner
Tab Pro tools
  • play this tab
  • loop segment
  • change instrument
  • show fretboard
  • metronome
Autoscroll
slow
fast
+/-
esc
set tempo
stop
Contributor
Difficulty
novice

   F Am  C      F Am  G
e--0--0--0------0--0--3-------------------------------------------------|
A--0--0--0------0--0--2-------------------------------------------------|
D--3--2--3------3--2--0-------------------------------------------------|
G--2--2--2------2--2--0-------------------------------------------------|
B--1--1--1------1--1--0-------------------------------------------------|
E--1--0--0------1--0--3-------------------------------------------------|

The songs verses and chorus follow this progression the whole song.
Although when he repeats "show me what i'm looking for...." the chords are a bit different.

   G  C  G Am
e--3--0--3--0----------------------------------------------------------|
A--2--0--2--0----------------------------------------------------------|
D--0--3--0--2----------------------------------------------------------|
G--0--2--0--2----------------------------------------------------------|
B--0--1--0--1----------------------------------------------------------|
E--3--0--3--0----------------------------------------------------------|

Here is the solo.

e---------------------------------------------------------------------|
A---------------------------------------------------------------------|
D---------------------------------------------------------------------|
G----2---2---------------------------2---2----------------------------|
B--1---1---1---------3-1---3-1-3---1---1---1---------3-1--3-1-3-3-3-3-|
E------------3-0---0-----0-------------------3-0---0-----0------------|

e---------------------------------------------------------------------|
A---------------------------------------------------------------------|
D---------------------------------------------------------------------|
G---------------------------------------------------------------------|
B--------------------------1-1-1-1-3-3-3-3-----------------3-3-3-3----|
E--0-0-0-0-3-3-3-3-3-3-3-3-----------------0-0-0-0-3-3-3-3------------|

                             F Am  C    F Am  G
e----------------------------0--0--0----0--0--3----------------------|
A----------------------------0--0--3----0--0--2----------------------|
D----------------------------3--2--2----3--2--0----------------------|
G----------------------------2--2--0----2--2--0----------------------|
B----------------------------1--1--1----1--1--0----------------------|
E--0-0-0-0-3-3-3-3-3-3-3-3---1--0--0----1--0--3----------------------|


Thats the song! Please enjoy and please rate :) If you notice anything wrong make sure 
tell me so i can fix it!
comments
We did not receive enough feedback on this tab! Please rate:
print report bad tab
1 2 3 4 5
I want to post or [tab]
guest
You may want to rate the tab now too:
select rating
Please do not post tabs as comments. Select "correction" instead!