Oops, an error
Loading. Please wait.

Transparent And Glasslike Tab

version 1
version 1

Whole song

Interactive

8,111 views 12 this week
no commentswrite comment
1 2 3 4 5
accurate
x 4
add to favorites
launch autoscroll
font size
0
reset
how to read this tab
guitar tuner
Autoscroll
slow
fast
+/-
esc
set tempo
stop
Help us to improve Ultimate-Guitar.com Take our survey!
×
Author
Hey all..  I found this song tabbed on here, but I thought there were some mistakes, so 
thought I'd write it the way I think sounds better..

The original tab I found is tuned a half step down, but since I'm an idiot at tuning, I 
play it standard tuning.

INTRO:

Am | C | Em | Gm | Am

E-----------------------------------------------------------------------------|
B--------------------3-------------------3-5--3-5--3-5--3-5--6-5--3-5---3---3-|
G--5--4-5--4-5--4-5----5--4-5--4-5--4-5-------------------------------5---4---|
D-----------------------------------------------------------------------------|
A-----------------------------------------------------------------------------|
E-----------------------------------------------------------------------------|

E----------------------3-------------------3---------------------------------|
B--5-6--5-6--5-6--5-6----6--5-6--5-6--5-6---------------------3--------------|
G--------------------------------------------5--4-5--4-5--4-5---5--4-5--4-5--|
D----------------------------------------------------------------------------|
A----------------------------------------------------------------------------|
E----------------------------------------------------------------------------|

E-------------------|
B-------------------|
G-4-5---------------|
D-------------------|
A-------------------|
E-------------------|

VERSE:

E----------------------------------------------------------------------------|
B------------------3------------------3--5-3--5-3--5-3?-5-3--6-5-3-5---3---3-|
G-5--4-5--4-5--4-5---5--4-5--4-5--4-5---------------------------------5---4--|
D----------------------------------------------------------------------------|
A----------------------------------------------------------------------------|
E----------------------------------------------------------------------------|

E---------------------3---3---3---3---------------------------------------------|
B-----------------------5---5---5-------------------------5-3--5-3--5-3--5-3--5-|
G-4-5--4-5--4-5--4-5----------------5-6--5-6--5-6--5-6--------------------------|
D-------------------------------------------------------------------------------|
A-------------------------------------------------------------------------------|
E-------------------------------------------------------------------------------|

^^ REPEATED DURING WHOLE VERSE (PLAYED AT THE SAME TIME AS THE CHORDS)

Am                C
  Stop the clocks, stop the cars
Am          Em          Gm
  Tell your dad, at the plant
        Am
To come home
Am             C
  Do not smile, do not sing
Am          Em        Gm
 Close your eyes, and go
   Am
To bed


CHORUS:

E-555555555555555533333333----------------------------------------------------|
B-------------------------666666665555555555555555333333333333333366666666666-|
G-----------------------------------------------------------------------------|
D-----------------------------------------------------------------------------|
A-----------------------------------------------------------------------------|
E-----------------------------------------------------------------------------|

E----------------------------------------------------------------------------|
B-666665555555555555555------------------------------------------------------|
G----------------------------------------------------------------------------|
D----------------------------------------------------------------------------|
A----------------------------------------------------------------------------|

^^ PLAYED AT THE SAME TIME AS THE CHORDS

F
  I forgive
G
  I pretend
C
  Not to smile
Em
  ?Cause I am
Dm             G
  Stronger than you

You?re transparent and glasslike


PLAY INTRO AGAIN


VERSE 2:

E----------------------------------------------------------------------------|
B------------------3------------------3--5-3--5-3--5-3?-5--6-5-3-5-----3---3-|
G-5--4-5--4-5--4-5---5--4-5--4-5--4-5---------------------------------5---4--|
D----------------------------------------------------------------------------|
A----------------------------------------------------------------------------|
E----------------------------------------------------------------------------|

E---------------------3---3---3---3---6-5--6-5--6-5--6--------------------------|
B-----------------------5---5---5-----------------------3?-5-3--5-3--5-3--5-3-5-|
G-4-5--4-5--4-5--4-5-5----------------------------------------------------------|
D-------------------------------------------------------------------------------|
A-------------------------------------------------------------------------------|
E-------------------------------------------------------------------------------|

^^ PLAYED ALONG WITH THE CHORDS

Am               C
  Stop your mind, stop your heart
Am          Em    Gm
  Tell your girl, not
        Am
To come home


CHORUS


OUTRO:

E-----------------------------------------------------------------------------|
B--------------------3-------------------3-5--3-5--3-5--3-5--6-5--3-5---3---3-|
G--5--4-5--4-5--4-5----5--4-5--4-5--4-5-------------------------------5---4---|
D-----------------------------------------------------------------------------|
A-----------------------------------------------------------------------------|
E-----------------------------------------------------------------------------|

E----------------------3------------------3-5--3-5--3-5--3-5--8--5-3--5-8-7-5-|
B--5-6--5-6--5-6--5-6----6--5-6--5-6--5-6-------------------------------------|
G-----------------------------------------------------------------------------|
D-----------------------------------------------------------------------------|
A-----------------------------------------------------------------------------|
E-----------------------------------------------------------------------------|

E-7--------------------------10--------------------------10-12--10-12--10-12-|
B---13--12-13--12-13--12-13------13--12-13--12-13--12-13---------------------|
G----------------------------------------------------------------------------|
D----------------------------------------------------------------------------|
A----------------------------------------------------------------------------|
E----------------------------------------------------------------------------|

E--10-12--13-12--10-12-----10---10---12-13--12-13--12-13--12-13--15-13-12-13-|
B-----------------------13----12---------------------------------------------|
G----------------------------------------------------------------------------|
D----------------------------------------------------------------------------|
A----------------------------------------------------------------------------|
E----------------------------------------------------------------------------|

E--12-13--12-13--15--12--10-12-----10----10-----------------------------------|
B-------------------------------13----13-----12-13--12-13--10-12--10-12----10-|
G-----------------------------------------------------------------------12----|
D-----------------------------------------------------------------------------|
A-----------------------------------------------------------------------------|
E-----------------------------------------------------------------------------|

*Sorry, can?t figure the chords for the outro out*

Hope it?s understandable.. (:
Suggest correction
What's this?
You can suggest a correction to this tab. Community and Mods will review your correction and vote to approve or reject it.
comments
print report bad tab
guest
You may want to rate the tab now too:
select rating
Please do not post tabs as comments. Select "correction" instead!