Oops, an error
Loading. Please wait.

Carpathian Forest Tab

version 1
version 1

Solo

Whole song

Interactive

891 views 1 this week
2 commentsread comments
1 2 3 4 5
x 3
add to favorites
launch autoscroll
font size
0
reset
how to read this tab
guitar tuner
Autoscroll
slow
fast
+/-
esc
set tempo
stop
Help us to improve Ultimate-Guitar.com Take our survey!
×
Difficulty
novice
----------------------|--------------------|----------------------|---------|
----------------------|--------------------|----------------------|---------|
------------16--------|---L----------------|--13------------------|---------|
--15------------------|--------------------|------------15--------|-L-13----|
----------------------|--------------------|----------------------|------14-|
----------------------|--------------------|----------------------|---------|


--------------------|----------------------------|--------------------|---------------------||
--------------------|----------------------18----|--------------------|---------------------||
--------------------|--15--16--15----------------|--17----------------|---------------------||
--15----------------|--------------15------------|--------------------|-16----15------------||
--------------------|----------------------------|--------------------|---------------------||
--------------------|----------------------------|--------------------|---------------------||

It's just my opinion, but i think it's right.
Suggest correction
Give kudos to tab author, rate the tab!
1 2 3 4 5
comments
print report bad tab
2 comments total.
0 reply
Gryphon999 194 Aug 10, 2009 05:17 PM

this is really wrong.. ur playing it to high in notes and frets. the whole solo starts off at G9.

+1 reply
Agasth 72 Sep 22, 2013 01:48 PM

E---------------------------------------
B---10§/8-------------------------------
G-9-------9---9---10-12-10---10---------
D-----------9---9----------9----9§------
A----------------------------------9-8§-
E---------------------------------------

try some think like this----.)

guest
You may want to rate the tab now too:
select rating
Wanna post a correction for this tab? Suggest correction