Oops, an error
Loading. Please wait.

Its Darker Than You Think bass

version 2
version 2

Whole song

Interactive

68 views 1 this week
no commentswrite comment
1 2 3 4 5
3 more votes to show rating
add to favorites
×
Save as Personal and add changes to this tab that will be seen only by you. Learn more ›
×
You can save this tab as Personal to edit and correct it or add notes. All changes will be seen only by you. Learn more »
launch autoscroll
font size
0
reset
guitar tuner
edit
Autoscroll
slow
fast
+/-
esc
set tempo
stop
Author
Difficulty
Tabbed by: 6METAL6BASSIST6
E-mail: petergriffinav@gmail.com

Tuning: EADG

0:32

G|--------------------|
D|--------------------|
A|--------------------|
E|2---/---10--\-------|

G|----------------------------------------------------------------|.
D|----------------------------------------------------------------|.
A|----------------------------------------------------------------|.
E|2---2---2---2---2---2---2---2---2---2---2---2---2---2---0-------|.
                                                                   . x5
G|----------------------------------------------------------------|.
D|----------------------------------------------------------------|.
A|1---1---1---1---1---1---1---1---1---1---1---1---1---1-----------|.
E|--------------------------------------------------------0-------|.

G|----------------------------------------------------------------|
D|----------------------------------------------------------------|
A|----------------------------------------------------------------|
E|2---2---2---2---2---2---2---2---2---2---2---2---2---2---0-------|

G|----------------------------------------------------------------|
D|----------------------------------------------------------------|
A|1---1---1---1---1---1---1---1---1---1---1---1---1-------/-9-\---|
E|----------------------------------------------------------------|

1:08

G|----------------------------------------------------------------|.
D|----------------------------------------------------------------|.
A|--------7-------6-------5-------6-------5-------4-------5-------|.
E|0---------------------------------------------------------------|.
                                                                   .
G|----------------------------------------------------------------|.
D|----------------------------------------------------------------|.
A|--------7-------6-------5-------6-------5-------4-------4-------|.
E|0---------------------------------------------------------------|.
                                                                   . x2
G|----------------------------------------------------------------|.
D|----------------------------------------------------------------|.
A|--------7-------6-------5-------6-------5-------4-------5-------|.
E|0---------------------------------------------------------------|.
                                                                   .
G|----------------------------------------------------------------|.
D|----------------------------------------------------------------|.
A|--------7-------6-------5-------4-------------------------------|.
E|0---------------------------------------3-------2---------------|.

1:32

G|----------------------------------------------------------------|.
D|----------------------------------------------------------------|.
A|----------------------------------------------------------------|.
E|0-0-0-0-0-0-0-0-0-0-0-0-0-0-0-0-0-0-0-0-0-0-0-0-0-0-0-0-0-0-0---|.
                                                                   . x4
G|----------------------------------------------------------------|.
D|----------------------------------------------------------------|.
A|3-3-3-3-3-3-3-3-3-3-3-3-3-3-3---2-2-2-2-2-2-2-2-2-2-2-2-2-2-2---|.
E|----------------------------------------------------------------|.

1:55

G|------------------------------------------------------------------------------------------------|
D|------------------------------------------------------------------------------------------------| x4
A|------2-----2-----2-----------------------------------2-----2-----2-----------------4-----5-----|
E|4-------4-----4-----4---3-3-3-3-3-3-3-3-3-3-----4-------4-----4-----4---3-3-3-3-----------------|

2:18

G|----------------------------------------------------------------|.
D|----------------------------------------------------------------|.
A|----------------------------------------------------------------|.
E|2-------5-------2-------5-------1-------4-------1-------4-------|.
                                                                   .
G|----------------------------------------------------------------|.
D|----------------------------------------------------------------|.
A|--------------------------------2-------5-------3-------6-------|.
E|2-------5-------2-------5---------------------------------------|.
                                                                   . x2
G|----------------------------------------------------------------|.
D|----------------------------------------------------------------|.
A|----------------------------------------------------------------|.
E|2-------5-------2-------5-------1-------4-------1-------4-------|.
                                                                   .
G|----------------------------------------------------------------|.
D|------------------------------------------------3-------6-------|.
A|--------------------------------2-------5-----------------------|.
E|2-------5-------2-------5---------------------------------------|.

2:41

G|----------------------------------------------------------------|.
D|----------------------------------------------------------------|.
A|----------------------------------------------------------------|.
E|0-0-0-0-0-0-0-0-0-0-0-0-0-0-0-0-0-0-0-0-0-0-0-0-0-0-0-0-0-0-0---|.
                                                                   . x4
G|----------------------------------------------------------------|.
D|----------------------------------------------------------------|.
A|3-3-3-3-3-3-3-3-3-3-3-3-3-3-3---2-2-2-2-2-2-2-2-2-2-2-2-2-2-2---|.
E|----------------------------------------------------------------|.

3:05

G|------------------------------------------------------------------------------------------------|
D|------------------------------------------------------------------------------------------------| x4
A|------2-----2-----2-----------------------------------2-----2-----2-----------------4-----5-----|
E|4-------4-----4-----4---3-3-3-3-3-3-3-3-3-3-----4-------4-----4-----4---3-3-3-3-----------------|

3:27

G|----------------------------------------------------------------|.
D|----------------------------------------------------------------|.
A|----------------------------------------------------------------|.
E|2-------5-------2-------5-------1-------4-------1-------4-------|.
                                                                   .
G|----------------------------------------------------------------|.
D|----------------------------------------------------------------|.
A|--------------------------------2-------5-------3-------6-------|.
E|2-------5-------2-------5---------------------------------------|.
                                                                   . x2
G|----------------------------------------------------------------|.
D|----------------------------------------------------------------|.
A|----------------------------------------------------------------|.
E|2-------5-------2-------5-------1-------4-------1-------4-------|.
                                                                   .
G|----------------------------------------------------------------|.
D|------------------------------------------------3-------6-------|.
A|--------------------------------2-------5-----------------------|.
E|2-------5-------2-------5---------------------------------------|.

G|--------------------------------|
D|--------------------------------|
A|--------------------------------|
E|2-----------/---10--\-----------|

3:53

G|----------------------------------------------------------------|.
D|----------------------------------------------------------------|.
A|----------------------------------------------------------------|.
E|2---2---2---2---2---2---2---2---2---2---2---2---2---2---0-------|.
                                                                   . x3
G|----------------------------------------------------------------|.
D|----------------------------------------------------------------|.
A|1---1---1---1---1---1---1---1---1---1---1---1---1---1-----------|.
E|--------------------------------------------------------0-------|.

G|----------------------------------------------------------------|
D|----------------------------------------------------------------|
A|----------------------------------------------------------------|
E|2---2---2---2---2---2---2---2---2---2---2---2---2---2---0-------|

G|----------------------------------------------------------------|
D|----------------------------------------------------------------|
A|1---1---1---1---1---1---1---1---1---1---1---1---1---------------|
E|----------------------------------------------------------------|

4:16

G|----------------------------------------------------------------|.
D|----------------------------------------------------------------|.
A|--------7-------6-------5-------6-------5-------4-------5-------|.
E|0---------------------------------------------------------------|.
                                                                   .
G|----------------------------------------------------------------|.
D|----------------------------------------------------------------|.
A|--------7-------6-------5-------6-------5-------4-------4-------|.
E|0---------------------------------------------------------------|.
                                                                   . x2
G|----------------------------------------------------------------|.
D|----------------------------------------------------------------|.
A|--------7-------6-------5-------6-------5-------4-------5-------|.
E|0---------------------------------------------------------------|.
                                                                   .
G|----------------------------------------------------------------|.
D|----------------------------------------------------------------|.
A|--------7-------6-------5-------4-------------------------------|.
E|0---------------------------------------3-------2---------------|.

G|--------|
D|--------|
A|--------|
E|2-------|
Suggest correction
Creating personal tab
Creating personal tab
You can edit any tab online and save it as your Personal.

You can edit, replace or remove any tab part or add personal notes – all changes will be seen only by you.

Personal tabs can be accessed anytime from any device, even offline.
Learn more »
Give kudos to tab author, rate the tab!
1 2 3 4 5
comments
print report bad tab
guest
You may want to rate the tab now too:
select rating
Wanna post a correction for this tab? Suggest correction