Oops, an error
Loading. Please wait.

Return Of The Freezing Winds tab

version 1
version 1

Whole song

Interactive

22 views 1 this week
no commentswrite comment
1 2 3 4 5
3 more votes to show rating
add to favorites
×
Save as Personal and add changes to this tab that will be seen only by you. Learn more ›
×
You can save this tab as Personal to edit and correct it or add notes. All changes will be seen only by you. Learn more »
launch autoscroll
font size
0
reset
how to read this tab
guitar tuner
edit
Autoscroll
slow
fast
+/-
esc
set tempo
stop
[Riff 1]
e|-----------------|
B|-----------------|
G|-----------------|
D|------------5-6--| (x8)
A|-4b-2-2-4-2-3-4--|
E|-2b-0-0-2-0------|
      . .          

[Verse]
e|---------------------------------|
B|---------------------------------|
G|---------------------------------|
D|---------------------------------| (x4)
A|-7-6-6-6-6-6-6-3-5-5-5-5-5-5-5-5-|
E|-5-4-4-4-4-4-4-1-3-3-3-3-3-3-3-3-| 

In the night the forest lies cold
Longing for the north wind to return
Hear the sad whisper of the wind
Blackened clouds cover the crescent moon

[Riff 1]
e|-----------------|
B|-----------------|
G|-----------------|
D|------------5-6--| (x8)
A|-4b-2-2-4-2-3-4--|
E|-2b-0-0-2-0------|
      . .

[Riff 3]
e|----------------------------------|
B|----------------------------------|
G|----------------------------------|
D|-4-4-5-2-4-4-5-2--3-3-4-1-3-3-4-1-| (x10)
A|-2-2-2-2-2-2-2-2--1-1-1-1-1-1-1-1-|
E|----------------------------------|

Evil lords ride the tempest wings
Cursed is the soil of the pathetic fools
The winds of mayhem have returned
To the infernal land of the forest
The return

[Verse]
e|---------------------------------|
B|---------------------------------|
G|---------------------------------|
D|---------------------------------| (x4)
A|-7-6-6-6-6-6-6-3-5-5-5-5-5-5-5-5-|
E|-5-4-4-4-4-4-4-1-3-3-3-3-3-3-3-3-| 

Dark is the shadow of the reaper
His cold embrace of melancholy
Illuminated are the old roots of evil
Hear the grim anguished cries

[Riff 1]
e|-----------------|
B|-----------------|
G|-----------------|
D|------------5-6--| (x8)
A|-4b-2-2-4-2-3-4--|
E|-2b-0-0-2-0------|
      . .

[Verse]
e|---------------------------------|
B|---------------------------------|
G|---------------------------------|
D|---------------------------------| (x4)
A|-7-6-6-6-6-6-6-3-5-5-5-5-5-5-5-5-|
E|-5-4-4-4-4-4-4-1-3-3-3-3-3-3-3-3-| 

Frozen millennium of the evil usurper
From the dark caves of the forest
Freezing winds sweeps the autumn meadow
This is the hellstorm of our infernal ways

[Riff 1]
e|-----------------|
B|-----------------|
G|-----------------|
D|------------5-6--| (x4)
A|-4b-2-2-4-2-3-4--|
E|-2b-0-0-2-0------|
      . .

The return of the freezing winds


*****************************************

| . -palm muting
| b - bend

*****************************************

            
            
Suggest correction
Creating personal tab
Creating personal tab
You can edit any tab online and save it as your Personal.

You can edit, replace or remove any tab part or add personal notes – all changes will be seen only by you.

Personal tabs can be accessed anytime from any device, even offline.
Learn more »
Give kudos to tab author, rate the tab!
1 2 3 4 5
comments
print report bad tab
guest
You may want to rate the tab now too:
select rating
Wanna post a correction for this tab? Suggest correction