Oops, an error
Loading. Please wait.

Close To You tab

version 6
version 6

Interactive

7,871 views 282 this week
no commentswrite comment
1 2 3 4 5
x 9
add to favorites
×
Save as Personal and add changes to this tab that will be seen only by you. Learn more ›
×
You can save this tab as Personal to edit and correct it or add notes. All changes will be seen only by you. Learn more »
launch autoscroll
font size
0
reset
how to read this tab
guitar tuner
backing track
0:00
0:00
edit
Autoscroll
slow
fast
+/-
esc
set tempo
stop
Author
Difficulty
Close to You by Carpenters

Tabs written and arranged by Edwin-E (in YouTube)
Blog: http://guitarplucking.blogspot.com
Facebook Page: http://facebook.com/EdwinEGuitar

Video Tutorial:  http://www.youtube.com/watch?v=zOSji3JfV1k

Intro
E|-----------------------0--------------------------|
B|--3--3--1--1-----3--3-----3--1--3--3--1--1-----1--|
G|--0--0--------0--0--0--------0--0--0--------0--0--|
D|-----------------------------------------------2--|
A|--3--------------3-----------3--3--------------3--|
E|--------------------------------------------------|



E|-------------------------0--------------2-----------------3--2h3p2--0--|
B|----------3-----3--1--3-----0-----0--3-----------3-----3---------------|
G|-------0--0-----------------2-----------------4-----4------------------|
D|--1/2--------------------------------------4---------------------------|
A|----------3--3--------------2--2--------2------------------------------|
E|----------------------------------------------------------0------------|
         C              B7           Bm7          Em 
Why do birds suddenly appear  every time you are near


E|-----------------0--------------------------3--|
B|--------3-----------3--------3-----------0-----|
G|-----0--------0-----------0-----------0--------|
D|--2--------2-----------2-----------0-----------|
A|--3-----3--3-----------3--------2--------------|
E|-----------------------------3-----------------|
 C                                      G
Just like me, they long to be Close to you


E|-------------------------0--------------2-----------------3--2h3p2--0--|
B|----------3-----3--1--3-----0-----0--3-----------3-----3---------------|
G|-------0--0-----------------2-----------------4-----4------------------|
D|--1/2--------------------------------------4---------------------------|
A|----------3--3--------------2--2--------2------------------------------|
E|----------------------------------------------------------0------------|
         C                       B7        Bm7            Em
Why do stars fall down from the sky  every time you walk by?

 
E|-----------------0-----2--------------------3--|
B|--------3-----------3-----3--0-----------0-----|
G|-----0--------0-----------------------0--------|
D|--2--------2-----------------------0-----------|
A|--3-----3--3--------------------2--------------|
E|-----------------------3-----------------------|
 C                                      G
Just like me, they long to be Close to you


E|--------------------------------------------|
B|--------------------------------------------|
G|--------0--0--2--2--0--0--------0--0--2--2--|
D|--2--2--------------------2--2--------------|
A|--3--3--------------------3--3--------------|
E|--------------------------------------------|
C
On the day that you were born the angels got together


E|--------------------2--2--------2-----------|
B|--------3--3--5--5--------5--3-----------3--|
G|--2--0--------------------------------4-----|
D|-----------------------------------4--------|
A|--------2--2--------------------2-----------|
E|--------------------------------------------|
      Bm                            Bm7
And decided to create a dream come true


E|-----2--3--3--3--3--3--3--3--|
B|--5-----0--0--0--0--0--0--0--|
G|-----------------------------|
D|-----------------------------|
A|-----------------------------|
E|--------0--------------------|
         Em
So they sprinkled moon dust in your hair of gold 


E|--3--3--3--3--3--3--0--2--3--5--|
B|-----0--0--0--0--0-----------7--|
G|-----------------------------7--|
D|--------------------------------|
A|--------------------------------|
E|-----0--------------------------|
                               D
and starlight in your eyes of blue


E|-------------------------0--------------2-----------------3--2h3p2--0--|
B|----------3-----3--1--3-----0-----0--3-----------3-----3---------------|
G|-------0--0-----------------2-----------------4-----4------------------|
D|--1/2--------------------------------------4---------------------------|
A|----------3--3--------------2--2--------2------------------------------|
E|----------------------------------------------------------0------------|
         C                   B7          Bm7       Em
That is why all the boys in town  follow you all around


E|-----------------0-----2--------------------3--|
B|--------3-----------3-----3--0-----------0-----|
G|-----0--------0-----------------------0--------|
D|--2--------2-----------------------0-----------|
A|--3-----3--3--------------------2--------------|
E|-----------------------3-----------------------|
  C                             G       
Just like me, they long to be Close to you


E|--3-----3--3--2--0-----2-----------------------3--|
B|--3-----------------------3--0--------------0-----|
G|-----------------------------------------0--------|
D|--------------------------------------0-----------|
A|--3--3-----------3--3--------------2--------------|
E|-----------------------3--------3-----------------|
C         G
ah -aah -close to you
Suggest correction
Creating personal tab
Creating personal tab
You can edit any tab online and save it as your Personal.

You can edit, replace or remove any tab part or add personal notes – all changes will be seen only by you.

Personal tabs can be accessed anytime from any device, even offline.
Learn more »
comments
print report bad tab
guest
You may want to rate the tab now too:
select rating
Wanna post a correction for this tab? Suggest correction