Oops, an error
Loading. Please wait.

Goodbye To Love solo tab

version 3
version 3

Whole song

Interactive

532 views 3 this week
no commentswrite comment
1 2 3 4 5
2 more votes to show rating
add to favorites
×
Save as Personal and add changes to this tab that will be seen only by you. Learn more ›
×
You can save this tab as Personal to edit and correct it or add notes. All changes will be seen only by you. Learn more »
launch autoscroll
font size
0
reset
how to read this tab
guitar tuner
edit
Autoscroll
slow
fast
+/-
esc
set tempo
stop
Author
Difficulty
-------------------------------------------------------------------------------
                             Goodbye To Love - The Carpenters
-------------------------------------------------------------------------------
Tabbed by: JGriffiths27

This is the second solo in the song "Goodbye To Love" by The Carpenters. Enjoy!

Tuning: Standard

e|---------------------------------------------------------------------------|
B|---------------------------------------------------------------------------|
G|---------------------------------------------------------------------------|
D|--------------------10--12--12--10-----------------------------------------|
A|----------10--12-----------------------------------------------------------|
E|---10/12-------------------------------------------------------------------|

e|---------------------------------------------------------------------------|
B|---------------------------------------------------------10---8------------|
G|------------------------------------------------9--12----------------------|
D|---12b14----12b14----12b14r12--10------9----12-----------------------------|
A|-----------------------------------12--------------------------------------|
E|---------------------------------------------------------------------------|

e|---------------------------------------------------------------------------|
B|----10b--10b--10b--10br--8----10-------------------------------------------|
G|-----------------------------------10--------------------------------------|
D|---------------------------------------10----10----------------------------|
A|---------------------------------------------------------------------------|
E|---------------------------------------------------------------------------|

e|---------------------------------------------------------------------------|
B|--------------------------------------------------10-----------------------|
G|---------------------------------------------------------------------------|
D|----12br--10----12br--10----12br--10----12br--10---------------------------|
A|---------------------------------------------------------------------------|
E|---------------------------------------------------------------------------|

e|---------------------------------------------------------------------------|
B|---------------------------------------------------------------------------|
G|---11br--9-----------------------------------------------------------------|
D|-------------12br----10--------10~~~~~-----9~~~~~--------------------------|
A|-------------------------12------------------------------------------------|
E|---------------------------------------------------------------------------|

e|---------------------------------------------------------------------------|
B|---------------------------------------------------------------------------|
G|----------------------------------12b13r12---------------------------------|
D|----10--10----------10----------------------10h12p10----12--10-------------|
A|------------12--10--------12--10-------------------------------------------|
E|---------------------------------------------------------------------------|

e|---------------------------------------------------------------------------|
B|--------------13--15br--15br--13--15--15br--13--13-------------------------|
G|----------12---------------------------------------------------------------|
D|----14---------------------------------------------------------------------|
A|---------------------------------------------------------------------------|
E|---------------------------------------------------------------------------|

e|---------------------------------------------------------------------------|
B|------------13-------------------------------------------------------------|
G|-----12b--------13br--12h13p12---------------------------------------------|
D|---------------------------------------15----14--------3----5----10--------|
A|----------------------------------------------------15\3----5----10--------|
E|-------------------------------------------------------1----3-----8--------|

e|---------------------------------------------------------------------------|
B|---------------------------------------------------------------------------|
G|---------------------------------------------------------------------------|
D|----------------10--12--10-------------------------------------------------|
A|----10--10--12-------------------------------------------------------------|
E|---------------------------------------------------------------------------|

e|---------------------------------------------------------------------------|
B|--------------------------------------------13---------13---------13-------|
G|-----------12---------12---------12----------------------------------------|
D|----13/14------13/14------13/14------13/14------13/14------13/14-----------|
A|---------------------------------------------------------------------------|
E|---------------------------------------------------------------------------|

e|---------------------------------------------------------------------------|
B|-----------13--------------------------------------------------------------|
G|---------------------------------------------------------------------------|
D|----13/14------13/14---12--12br--------------------12----------------------|
A|-----------------------------------15--12--15--15------15------------------|
E|---------------------------------------------------------------------------|

e|---------------------------------------------------------------------------|
B|---------------------------------------------------------------------------|
G|---------------------------------------------------------------------------|
D|-----12b----12br--10--12--10--12br----10--------10-------------------------|
A|------------------------------------------12-------------------------------|
E|---------------------------------------------------------------------------|

e|---------------------------------------------------------------------------|
B|----------------13----12----10----10h12p12---------------------------------|
G|----------12------------------------------------14----12---12--------------|
D|----14---------------------------------------------------------------------|
A|---------------------------------------------------------------------------|
E|---------------------------------------------------------------------------|

e|---------------------------------------------------------------------------|
B|---------------------------------------------------------------------------|
G|----12--10--9--------------------12--10--9---------------------------------|
D|---------------12--10-----------------------12--10-------------------------|
A|-----------------------10~~~~-----------------------10~~~~-----------------|
E|---------------------------------------------------------------------------|

e|---------------------------------------------------------------------------|
B|----10br-------------------------------------------------------------------|
G|------------12--10--9----9----10-------------------------------------------|
D|------------------------------------10----10~~~~---------------------------|
A|---------------------------------------------------------------------------|
E|---------------------------------------------------------------------------|

e|---------------------------------------------------------------------------|
B|---------------------------------------------------------------------------|
G|---------------------------------------------------------------------------|
D|----12br--10--12br--10--12br--10--12--10-----------------------------------|
A|---------------------------------------------------------------------------|
E|---------------------------------------------------------------------------|

e|---------------------------------------------------------------------------|
B|---------------------------------------------------------------------------|
G|---------------------------------------------------------------------------|
D|----3----5----10------10---------------------------------------------------|
A|----3----5----10--10------10-----------------------------------------------|
E|----1----3----8------------------------------------------------------------|

e|---------------------------------------------------------------------------|
B|---------------------------------------------------------------------------|
G|--------------------------10--9----------------9---------------------------|
D|----10----------10~~~~-----------12--10----12------------------------------|
A|----10----10---------------------------------------------------------------|
E|----8----------------------------------------------------------------------|

e|----8~~~~----10----8----10br----8~~~~--------------------------------------|
B|---------------------------------------------------------------------------|
G|---------------------------------------------------------------------------|
D|---------------------------------------------------------------------------|
A|---------------------------------------------------------------------------|
E|---------------------------------------------------------------------------|

e|----8---------8---------8--------8-----------------------------------------|
B|-------9---------9---------8--------8--------------------------------------|
G|----------10--------10--------9-------9------------------------------------|
D|---------------------------------------------------------------------------|
A|---------------------------------------------------------------------------|
E|---------------------------------------------------------------------------|

e|---------------------------------------------------------------------------|
B|---------------------------------------------------------------------------|
G|-----9\7------7------------------------------------------------------------|
D|----------10-----10~~~~----9~~~~-------------------------------------------|
A|---------------------------------------------------------------------------|
E|---------------------------------------------------------------------------|

e|---------------------------------------------------------------------------|
B|---------------------------------------------------------------------------|
G|---------------------------------------------------------------------------|
D|----------------10---10-----------------10---10----------------------------|
A|-------------7-----------------------7-------------------------------------|
E|----8----10-----------------8----10----------------------------------------|

************************************

| /   slide up
| \   slide down
| h   hammer-on
| p   pull-off
| ~   vibrato
| +   harmonic
| x   Mute note
| b   Bend
| pb  Pre-bend
| br  Bend release
| pbr Pre-bend release
| brb Bend release bend

************************************

            
            
Suggest correction
Creating personal tab
Creating personal tab
You can edit any tab online and save it as your Personal.

You can edit, replace or remove any tab part or add personal notes – all changes will be seen only by you.

Personal tabs can be accessed anytime from any device, even offline.
Learn more »
Give kudos to tab author, rate the tab!
1 2 3 4 5
comments
print report bad tab
guest
You may want to rate the tab now too:
select rating
Wanna post a correction for this tab? Suggest correction