Oops, an error
Loading. Please wait.

Please Mr Postman drums

version 1
version 1

Whole song

Interactive

10 views 1 this week
no commentswrite comment
1 2 3 4 5
2 more votes to show rating
add to favorites
×
Save as Personal and add changes to this tab that will be seen only by you. Learn more ›
×
You can save this tab as Personal to edit and correct it or add notes. All changes will be seen only by you. Learn more »
launch autoscroll
font size
0
reset
guitar tuner
edit
Autoscroll
slow
fast
+/-
esc
set tempo
stop
4/4

[Intro]                                                            
C|--------------------------------|--------------------------------|
H|--------------------------------|--------x---------------x-------|
T|------------------x-x-x---x-----|--------------------------------|
S|--------------------------------|--------------------------------|
B|--------------------------------|0---------------------------0---|
                                                                     
C|--------------------------------|--------------------------------|
H|--------x---------------x-------|--------x---------------x-------|
T|--------------------------------|--------------------------------|
S|--------------------------------|--------------------------------|
B|0---------------------------0---|0---------------------------0---|

[Chorus]                                                           
C|--------------------------------|X-------------------------------|
H|--------------------------------|x---x---x---x---x---x---x---x---|
T|----x-------x---x-x-x-x-x-------|--------------------------------|
S|--------------------------------|--------x---------------x-------|
B|0---------------------------0---|0---------------0---0-------0---| 
                                                                    
C|--------------------------------|--------------------------------|
H|x---x---x---x---x---x---x---x---|x---x---x---x---x---x---x---x---|
T|--------------------------------|--------------------------------|
S|--------x---------------x-------|--------x---------------x-------|
B|0-----------0---0---0-------0---|0-----------0---0---0-------0---|
                                                                     
C|--------------------------------|--------------------------------|
H|x---x---x---x---x---x---x---x---|x---x---x---x---x---x---x---x---|
T|--------------------------------|--------------------------------|
S|--------x---------------x-------|--------x---------------x-------|
B|0---------------0---0-------0---|------------0---0-----------0---|
                                                                     
C|--------------------------------|--------------------------------|
H|x---x---x---x---x---x---x---x---|x---x---x---x---x---x---x---x---|
T|--------------------------------|--------------------------------|
S|--------x---------------x-------|--------x---------------x-------|
B|------------0---0-----------0---|0-----------0---0---0-------0---|
 
[Verse]                                                            
C|--------------------------------|X-------------------------------|
H|x---x-------x-------------------|x---x---x---x---x---x---x---x---|
T|--------------------x-x-x---x---|X-------------------------------|
S|--------x-----------------------|--------x---------------x-------|
B|0---------------0---------------|0---------------0---0-------0---|
                                                                     
C|--------------------------------|--------------------------------|
H|x---x---x---x---x---x---x---x---|x---x---x---x---x---x---x---x---|
T|--------------------------------|--------------------------------|
S|--------x---------------x-------|--------x---------------x-------|
B|0-----------0---0---0-------0---|0-----------0---0---0-------0---| 
                                                                    
C|--------------------------------|--------------------------------|
H|x---x---x---x---x---x---x---x---|x---x---x---x---x---x---x---x---|
T|--------------------------------|--------------------------------|
S|--------x---------------x-------|--------x---------------x-------|
B|0---------------0---0-------0---|------------0---0-----------0---|
                                                                     
C|--------------------------------|--------------------------------|
H|x---x---x---x---x---x---x---x---|x---x---x---x---x---x---x---x---|
T|--------------------------------|--------------------------------|
S|--------x---------------x-------|--------x---------------x-------|
B|------------0---0-----------0---|0-----------0---0---0-------0---|
                                                                    
C|--------------------------------|X-------------------------------|
H|x-------x-------x---------------|x---x---x---x---x---x---x---x---|
T|----x-------x-------x---x---x---|X-------------------------------|
S|--------------------------------|--------x---------------x-------|
B|0-------------------------------|0---------------0---0-------0---|
                                                                    
C|--------------------------------|--------------------------------|
H|x---x---x---x---x---x---x---x---|x---x---x---x---x---x---x---x---|
T|--------------------------------|--------------------------------|
S|--------x---------------x-------|--------x---------------x-------|
B|0-----------0---0---0-------0---|0-----------0---0---0-------0---|
                                                                    
C|--------------------------------|--------------------------------|
H|x---x---x---x---x---x---x---x---|x---x---x---x---x---x---x---x---|
T|--------------------------------|--------------------------------|
S|--------x---------------x-------|--------x---------------x-------|
B|0---------------0---0-------0---|------------0---0-----------0---| 
                                                                   
C|--------------------------------|--------------------------------|
H|x---x---x---x---x---x---x---x---|x---x---x---x---x---x---x---x---|
T|--------------------------------|--------------------------------|
S|--------x---------------x-------|--------x---------------x-------|
B|------------0---0-----------0---|0-----------0---0---0-------0---|
 
[Chorus]                                                           
C|--------------------------------|X-------------------------------|
H|x-------x-------x---------------|x---x---x---x---x---x---x---x---|
T|----x-x-----x-x-x-x-x-x-x-x-x---|X-------------------------------|
S|--------------------------------|--------x---------------x-------|
B|0-------------------------------|0---------------0---0-------0---|
                                                                     
C|--------------------------------|--------------------------------|
H|x---x---x---x---x---x---x---x---|x---x---x---x---x---x---x---x---|
T|--------------------------------|--------------------------------|
S|--------x---------------x-------|--------x---------------x-------|
B|0-----------0---0---0-------0---|0-----------0---0---0-------0---|
                                                                    
C|--------------------------------|--------------------------------|
H|x---x---x---x---x---x---x---x---|x---x---x---x---x---x---x---x---|
T|--------------------------------|--------------------------------|
S|--------x---------------x-------|--------x---------------x-------|
B|0---------------0---0-------0---|------------0---0-----------0---|
                                                                    
C|--------------------------------|--------------------------------|
H|x---x---x---x---x---x---x---x---|x---x---x---x---x---x---x---x---|
T|--------------------------------|--------------------------------|
S|--------x---------------x-------|--------x---------------x-------|
B|------------0---0-----------0---|0-----------0---0---0-------0---|
 
[Sax Solo]                                                         
C|--------------------------------|X-------------------------------|
H|x-------------------------------|x---x---x---x---x---x---x---x---|
T|----x-x---x-x---x-x---x---x---x-|X-------------------------------|
S|--------------------------------|--------x---------------x-------|
B|0-------------------------------|0---------------0---0-------0---|
                                                                    
C|--------------------------------|--------------------------------|
H|x---x---x---x---x---x---x---x---|x---x---x---x---x---x---x---x---|
T|--------------------------------|--------------------------------|
S|--------x---------------x-------|--------x---------------x-------|
B|0-----------0---0---0-------0---|0-----------0---0---0-------0---| 
                                                                    
C|--------------------------------|--------------------------------|
H|x---x---x---x---x---x---x---x---|x---x---x---x---x---x---x---x---|
T|--------------------------------|--------------------------------|
S|--------x---------------x-------|--------x---------------x-------|
B|0---------------0---0-------0---|------------0---0-----------0---|
                                                                    
C|--------------------------------|--------------------------------|
H|x---x---x---x---x---x---x---x---|x---x---x---x---x---x---x---x---|
T|--------------------------------|--------------------------------|
S|--------x---------------x-------|--------x---------------x-------|
B|------------0---0-----------0---|0-----------0---0---0-------0---|
 
[Verse]                                                            
C|--------------------------------|X-------------------------------|
H|x-------x-------x---------------|x---x---x---x---x---x---x---x---|
T|----x-------x-------x---x---x---|--------------------------------|
S|--------------------------------|--------x---------------x-------|
B|0-------------------------------|0---------------0---0-------0---| 
                                                                    
C|--------------------------------|--------------------------------|
H|x---x---x---x---x---x---x---x---|x---x---x---x---x---x---x---x---|
T|--------------------------------|--------------------------------|
S|--------x---------------x-------|--------x---------------x-------|
B|0-----------0---0---0-------0---|0-----------0---0---0-------0---|
                                                                    
C|--------------------------------|--------------------------------|
H|x---x---x---x---x---x---x---x---|x---x---x---x---x---x---x---x---|
T|--------------------------------|--------------------------------|
S|--------x---------------x-------|--------x---------------x-------|
B|0---------------0---0-------0---|------------0---0-----------0---|
                                                                    
C|--------------------------------|--------------------------------|
H|x---x---x---x---x---x---x---x---|x---x---x---x---x---x---x---x---|
T|--------------------------------|--------------------------------|
S|--------x---------------x-------|--------x---------------x-------|
B|------------0---0-----------0---|0-----------0---0---0-------0---|

[Chorus]                                                           
C|----X-------X-------------------|X-------------------------------|
H|x-------------------------------|x---x---x---x---x---x---x---x---|
T|--------------------x-x-x---x---|X-------------------------------|
S|--------x-----------------------|--------x---------------x-------|
B|0---------------0---------------|0---------------0---0-------0---|
                                                                     
C|--------------------------------|--------------------------------|
H|x---x---x---x---x---x---x---x---|x---x---x---x---x---x---x---x---|
T|--------------------------------|--------------------------------|
S|--------x---------------x-------|--------x---------------x-------|
B|0-----------0---0---0-------0---|0-----------0---0---0-------0---|
 
                                  [Verse]                           
C|--------------------------------|--------------------------------|
H|x---x---x---x---x---x---x---x---|x---x---x---x---x---x---x---x---|
T|--------------------------------|--------------------------------|
S|--------x---------------x-------|--------x---------------x-------|
B|0---------------0---0-------0---|------------0---0-----------0---|
                                                                     
C|--------------------------------|--------------------------------|
H|x---x---x---x---x---x---x---x---|------------------------x-------|
T|--------------------------------|--------------------------------|
S|--------x---------------x-------|--------x---x-------------------|
B|------------0---0-----------0---|--------------------------------|
                                                                     
C|--------------------------------|X-------------------------------|
H|--------------------------------|x---x---x---x---x---x---x---x---|
T|----x-------x---------x-x-------|X-------------------------------|
S|--------x---x-------------------|--------x---------------x-------|
B|--------------------------------|0---------------0---0-------0---|
                                                                    
C|--------------------------------|--------------------------------|
H|x---x---x---x---x---x---x---x---|x---x---x---x---x---x---x---x---|
T|--------------------------------|--------------------------------|
S|--------x---------------x-------|--------x---------------x-------|
B|0-----------0---0---0-------0---|0-----------0---0---0-------0---|
 
                                  [Outro/Guitar Solo]              
C|--------------------------------|--------------------------------|
H|x---x---x---x---x---x---x---x---|x---x---x---x---x---x---x---x---|
T|--------------------------------|--------------------------------|
S|--------x---------------x-------|--------x---------------x-------|
B|0---------------0---0-------0---|------------0---0-----------0---|
                                                                    
C|--------------------------------|--------------------------------|
H|x---x---x---x---x---x---x---x---|x-------x---------------x-------|
T|--------------------------------|--------------------------------|
S|--------x---------------x-------|--------x---x-------------------|
B|------------0---0-----------0---|0---------------------------0---|
                                                                    
C|--------------------------------|X-------------------------------|
H|--------------------------------|x---x---x---x---x---x---x---x---|
T|--------x-x---x-x-----x-x-------|X-------------------------------|
S|--------x---x-------------------|--------x---------------x-------|
B|0-------------------------------|0---------------0---0-------0---| 
                                                                    
C|--------------------------------|--------------------------------|
H|x---x---x---x---x---x---x---x---|x---x---x---x---x---x---x---x---|
T|--------------------------------|--------------------------------|
S|--------x---------------x-------|--------x---------------x-------|
B|0-----------0---0---0-------0---|0-----------0---0---0-------0---| 
                                                                    
C|--------------------------------|--------------------------------|
H|x---x---x---x---x---x---x---x---|x---x---x---x---x---x---x---x---|
T|--------------------------------|--------------------------------|
S|--------x---------------x-------|--------x---------------x-------|
B|0---------------0---0-------0---|------------0---0-----------0---|
                                                                     
C|--------------------------------|--------------------------------|
H|x---x---x---x---x---x---x---x---|x---x---x---x---x---x---x---x---|
T|--------------------------------|--------------------------------|
S|--------x---------------x-------|--------x---------------x-------|
B|------------0---0-----------0---|0-----------0---0---0-------0---|
                                                                     
C|--------------------------------|X-------------------------------|
H|x-------------------------------|x---x---x---x---x---x---x---x---|
T|----x-x---x-x---x-x---x---x---x-|X-------------------------------|
S|--------------------------------|--------x---------------x-------|
B|0-------------------------------|0---------------0---0-------0---| 
                                                                    
C|--------------------------------|--------------------------------|
H|x---x---x---x---x---x---x---x---|x---x---x---x---x---x---x---x---|
T|--------------------------------|--------------------------------|
S|--------x---------------x-------|--------x---------------x-------|
B|0-----------0---0---0-------0---|0-----------0---0---0-------0---|
                                                                    
C|--------------------------------|--------------------------------|
H|x---x---x---x---x---x---x---x---|x---x---x---x---x---x---x---x---|
T|--------------------------------|--------------------------------|
S|--------x---------------x-------|--------x---------------x-------|
B|0---------------0---0-------0---|------------0---0-----------0---|
                                                                     
C|--------------------------------|--------------------------------|
H|x---x---x---x---x---x---x---x---|x---x---x---x---x---x---x---x---|
T|--------------------------------|--------------------------------|
S|--------x---------------x-------|--------x---------------x-------|
B|------------0---0-----------0---|0-----------0---0---0-------0---|
                                                                    
C|--------------------------------|
H|x-------x-------x---------------|
T|----x-------x-------x---x---x---|
S|--------------------------------|
B|0-------------------------------|


************************************

| x  Dead note

************************************

            
            
Suggest correction
Creating personal tab
Creating personal tab
You can edit any tab online and save it as your Personal.

You can edit, replace or remove any tab part or add personal notes – all changes will be seen only by you.

Personal tabs can be accessed anytime from any device, even offline.
Learn more »
Give kudos to tab author, rate the tab!
1 2 3 4 5
comments
print report bad tab
guest
You may want to rate the tab now too:
select rating
Wanna post a correction for this tab? Suggest correction