Oops, an error
Loading. Please wait.

Superstar Tab

version 1
version 1

Whole song

Interactive

8,654 views 3 this week
no commentswrite comment
1 2 3 4 5
x 3
add to favorites
launch autoscroll
font size
0
reset
how to read this tab
guitar tuner
×
Best way to learn
"Superstar"
Autoscroll
slow
fast
+/-
esc
set tempo
stop
ACCURATE TAB!!  just copy/paste this onto a blank document and resize
the text and it should be perfectly legible

The Carpenters
SUPERSTAR


Intro (No Vocals)
|-3--1-------------3--1-3--5-3--1--(1)--------1-0-------------------------------|e
|-1-----1----------0--x-0--1-0--x--(x)-----3--x-----------------------0---------|B
|-2-------------------2---------2--(2)---2----2----2-----2-------0-2--0--2------|G
|-------------2-3----------------------3-----------2-----3-0--3-------2--3--3--2|D
|----------3--3------------------------------------3--3--3---------------0--3--2|A
|-------------3-------------------------------------------------------------3--2|E

|----9-5-3-1--3--|e
|----------------|B
|----------------|G
|-3--------------|D
|-3--------------|A
|-3--------------|E

Verse 1  Long ago, and so far away  I fell in love with you
|--------------------------------------------------------------------|e
|--------------------------------------------------------------------|B
|-0------------------------------------------------------------------|G
|----3----------3-2--(2)-3--(3)------------3-2--(2)-3--(3)-----------|D
|-------3--(3)------------------0-0-0-(0)------------------0-0-0-(0)-|A
|--------------------------------------------------------------------|E

Before The Second Show Your Guitar Sounds so sweet and clear
|---------------------------------------------------------------|e
|---------------------------------------------------------------|B
|-----------------------0---------------------------------------|G
|-----------2--------------3----------3-2--(2)-3--(3)-----------|D
|----0-2--3----3---(3)--------3--(3)------------------0-0-0-(0)-|A
|-1-------------------------------------------------------------|E

But You're Not Really Here  It's Just the Radio____
|-------------------------------------------------|e
|-------------------------------------------------|B
|-------------------------------------------------|G
|-3-2--(2)-3--(3)---------------------------------|D
|-----------------0-0-0-(0)-----0-2--3-2--3---(3)-|A
|----------------------------1--------------------|E

Chorus
Don't You Remember you told me you loved me baby? ...This way__
|------------------------------------------------------------------------------|e
|------------------------------------------------------------------------------|B
|---2-2--2-2-2--2-(0)-0-0--0---------------------------2-2--2-2-2--(0)-0-0-----|G
|-3--------------------------(3)-3-3--(2)-2-(2)---2--2---------------------(3)-|D
|------------------------------------------------------------------------------|A
|------------------------------------------------------------------------------|E

again baby    ba-by   ba-by   ba-by   ba-by   oh ba-by
|-------------------------------------------------------------------------------|e
|-------------------------------------------------------------------------------|B
|-----0--(0)---------------------2--2-2-2--(0)-0-0----------0--(0)--------------|G
|-3-3--------3-2--(2)-2--(2)---3--------------------(3)-3-3--------3-2-(2)-2-(2)|D
|-------------------------------------------------------------------------------|A
|-------------------------------------------------------------------------------|E

I love___you   I really do   (Blue: on 2nd verse only-do not play part before)
|-------------------------------------------------------------------------|e
|-------------------------------------------------------------------------|B
|-------------------------------------------------------------------------|G
|---------------------------------------2---------------------------------|D
|----3-2--0-2-(2)---3--3-2-0-(0)---3--3---3-(3)--(3)---3--3-2-0-(0)---(0)-|A
|-1-----------------------------------------------------------------------|E
Suggest correction
Give kudos to tab author, rate the tab!
1 2 3 4 5
comments
print report bad tab
guest
You may want to rate the tab now too:
select rating
Wanna post a correction for this tab? Suggest correction