Oops, an error
Loading. Please wait.

Sweet Sweet Smile bass

version 1
version 1

Whole song

Interactive

46 views 1 this week
no commentswrite comment
1 2 3 4 5
2 more votes to show rating
add to favorites
×
Save as Personal and add changes to this tab that will be seen only by you. Learn more ›
×
You can save this tab as Personal to edit and correct it or add notes. All changes will be seen only by you. Learn more »
launch autoscroll
font size
0
reset
guitar tuner
edit
Autoscroll
slow
fast
+/-
esc
set tempo
stop
The Carpenters - Sweet Sweet Smile

Tabbed by electricbunny


4/4

 [Intro]
 
G|--------------------------------|--------------------------------|
D|------------------------3\------|0---0---0---0---0---0---0---0---|
A|--------------------------------|--------------------------0---0-|
E|--------------------------------|--------------------------------|
 
   
G|--------------------------------|--------------------------------|
D|0---0---0---0---0---0---0---0---|0---0---0---0---0---0---0---0---|
A|------------------0-------------|--------------------------------|
E|--------------------------------|--------------------------------|
 
     
G|--------------------------------|--------2---------------2-------|
D|0---0---0---0---0---0---0---0---|0---------------0-----0---------|
A|------------------0-------------|--------------------------------|
E|--------------------------------|--------------------------------|
 
                                 [Verse]

G|--------2-----------2---0-------|--------2---2-------------------|
D|0---------------0---------3-5---|0-----0---------0-------0-------|
A|--------------------------------|--------------------------------|
E|--------------------------------|--------------------------------|
 
    
G|--------------------------------|--------------------------------|
D|--------4-----------------------|5-------5-------4-------2-------|
A|2---------------2-------2-------|--------------------------------|
E|--------------------------------|--------------------------------|
 
       
G|--------2-----2---2-------------|--------2-----2-----------------|
D|0---------------0---0-----------|0---------------0-------0-------|
A|------------------------2---4---|--------------------------------|
E|--------------------------------|--------------------------------|
 
     
G|--------------------------------|0-------0-------2-------2-------|
D|--------4-------------------4---|--------------------------------|
A|2---------------2-----0-2-------|--------------------------------|
E|--------------------------------|--------------------------------|
 
                                  [Chorus]

G|--------2-----------------------|----------------------------4---|
D|0---------------0-------0-------|--------4---------------4-------|
A|----------------------------2---|2---------------2---------------|
E|--------------------------------|--------------------------------|
 
  
G|--------------------------------|0---------------0-----------0---|
D|--------4-----------------------|----------0-2-------0---2-------|
A|2---------------2-------2-------|--------------------------------|
E|--------------------------------|--------------------------------|
 
     
G|2-----2---------2-0---------0---|--------------------------------|
D|--------0-----0-----2---4-------|--------4---------------4-4-----|
A|--------------------------------|2---------------2---------------|
E|--------------------------------|--------------------------------|
 
     
G|4-------------------------------|0---------------0-------0-------|
D|------------------0-0---2---4---|--------0-----------------------|
A|--------------------------------|--------------------------------|
E|--------------------------------|--------------------------------|
 
                                  [Verse]
G|2---------------2-0-------------|--------2-----2-----------------|
D|--------2-----2---------4---2---|0---------------0-------0-------|
A|--------------------------------|--------------------------------|
E|--------------------------------|--------------------------------|
  
  
G|--------------------------------|0-------0-----------------------|
D|--------4-------------------4---|----------------4-------2-------|
A|2---------------2-----0-2-------|--------------------------------|
E|--------------------------------|--------------------------------|
 
       
G|--------2---------2-2-----------|--------2-----------------------|
D|0---------------0---------------|0------------0-----0--0---------|
A|------------------------2---4---|-------------------------4------|
E|--------------------------------|--------------------------------|
 
    
G|--------------------------------|0-------0-------2-------2-------|
D|--------4-------------------4---|--------------------------------|
A|2---------------2-----0-2-------|--------------------------------|
E|--------------------------------|--------------------------------|
 
                                 
                                 
G|--------2-----------------------|----------------------------4---|
D|0---------------0---0---0-------|--------4---------------4-------|
A|----------------------------3---|2---------------2---------------|
E|--------------------------------|--------------------------------|
 
    
G|--------------------------------|0---------------0-----------0---|
D|--------4-----------------------|----------0-2-------0---2-------|
A|2---------------2---2---2-------|--------------------------------|
E|--------------------------------|--------------------------------|
 
      
G|2-----2---------2-0---------0---|--------------------------------|
D|--------0-----0-----2---4-------|--------4---------------4-4-----|
A|--------------------------------|2---------------2---------------|
E|--------------------------------|--------------------------------|
 
     
G|4-------------------------------|0---------------0-------0-------|
D|------------------0-0---2---4---|--------0-----------------------|
A|--------------------------------|--------------------------------|
E|--------------------------------|--------------------------------|
 
                                 [Solo]

G|2---------------2-0-------------|--------2-----------------------|
D|--------2-----2---------4---2---|0---------------0----0--0-------|
A|--------------------------------|---------------------------4----|
E|--------------------------------|--------------------------------|
 
     
G|--------------------------------|0-------0-----------------------|
D|--------4-------------------4---|----------------4-------2-------|
A|2---------------2-----0-2-------|--------------------------------|
E|--------------------------------|--------------------------------|
 
      
G|--------2---------2-2-----------|--------2-----------------------|
D|0---------------0---------------|0-----0---------0-------0-------|
A|------------------------2---4---|--------------------------------|
E|--------------------------------|--------------------------------|
 
     
G|--------------------------------|0-------0-------2-------2-------|
D|--------4-------------------4---|--------------------------------|
A|2---------------2-----0-2-------|--------------------------------|
E|--------------------------------|--------------------------------|
 
                                  [Chorus]

G|--------2-----------------------|----------------------------4---|
D|0---------------0---0---0-------|--------4---------------4-------|
A|----------------------------3---|2---------------2---------------|
E|--------------------------------|--------------------------------|
 
    
G|--------------------------------|0---------------0-----------0---|
D|--------4-----------------------|--------0---2-------0---2-------|
A|2---------------2-------2-------|--------------------------------|
E|--------------------------------|--------------------------------|
 
   
G|--------------------------------|--------------------------------|
D|------2---2---------------------|--------4---------------4-4-----|
A|0---0-------0----------0----1---|2---------------2---------------|
E|-------------------4------------|--------------------------------|
 
      
G|4-------------------------------|0---------------0-------0-------|
D|------------------0-0---2---4---|--------0-----------------------|
A|--------------------------------|--------------------------------|
E|--------------------------------|--------------------------------|
                                 
                                  [Outro]

G|2---------------2-0-------------|--------2-----2-----------------|
D|--------2-----2---------4---2---|0---------------0-------0-------|
A|--------------------------------|--------------------------------|
E|--------------------------------|--------------------------------|
 
   
G|--------------------------------|0-------0-----------------------|
D|--------4-------------------4---|----------------4-------2-------|
A|2---------------2-----0-2-------|--------------------------------|
E|--------------------------------|--------------------------------|
 
     
G|--------2-----------------------|0-------0-------2-------2-------|
D|0---------------0---------------|--------------------------------|
A|------------------------2---4---|--------------------------------|
E|--------------------------------|--------------------------------|
 
      
G|--------2-----------------------|0-------0-------2-------2-------|
D|0---------------0---------------|--------------------------------|
A|------------------------2---4---|--------------------------------|
E|--------------------------------|--------------------------------|
 
        
G|--------2-----------2-----------|
D|0---------------0-------0-------|
A|--------------------------------|
E|--------------------------------|

************

|  \ Slide

************

            
            
Suggest correction
Creating personal tab
Creating personal tab
You can edit any tab online and save it as your Personal.

You can edit, replace or remove any tab part or add personal notes – all changes will be seen only by you.

Personal tabs can be accessed anytime from any device, even offline.
Learn more »
Give kudos to tab author, rate the tab!
1 2 3 4 5
comments
print report bad tab
guest
You may want to rate the tab now too:
select rating
Wanna post a correction for this tab? Suggest correction