Oops, an error
Loading. Please wait.

Sweet Sweet Smile tab

version 1
version 1

Whole song

Interactive

16 views 1 this week
no commentswrite comment
1 2 3 4 5
2 more votes to show rating
add to favorites
×
Save as Personal and add changes to this tab that will be seen only by you. Learn more ›
×
You can save this tab as Personal to edit and correct it or add notes. All changes will be seen only by you. Learn more »
launch autoscroll
font size
0
reset
how to read this tab
guitar tuner
edit
Autoscroll
slow
fast
+/-
esc
set tempo
stop
Artist: Carpenters 
Song: Sweet Sweet Smile 
Tuning - Standard
tabbed by electricbunny

[Intro]                                                             
E|--------------------------------|--------------------------------|
B|--------------------------------|--------------------------------|
G|--------------------------------|--------------------------------|
D|--------------------------------|--------------------------------| (x4)
A|--------------------------------|--------------------------------|
E|--------------------------------|--------------------------------|
 
E|--------------------------------|0-------------------------------|
B|------------------------3-------|--------------------------------|
G|----------------2---------------|--------------------------------|
D|0-------2-----------------------|--------------------------------|
A|--------------------------------|--------------------------------|
E|--------------------------------|--------------------------------|
 
E|------------------------0-------|--------------------------------|
B|--------------------3-----------|3-------------------------------|
G|--------------------------------|--------------------------------|
D|--------------------------------|--------------------------------|
A|--------------------------------|--------------------------------|
E|--------------------------------|--------------------------------|
 
E|--------------------------------|
B|--------------------0-----------|
G|------------2-----------2-------|
D|--------------------------------|
A|--------------------------------|
E|--------------------------------|
 
[Verse]                                                            
E|--------------------------------|--------------------------------|
B|--------------------------------|--------------------------------|
G|--------------------------------|--------------------------------|
D|--------------------------------|--------------------------------| (x3)
A|--------------------------------|--------------------------------|
E|--------------------------------|--------------------------------|
 
E|--------1-----------------------|--------5-----------------------|
B|------------------------3-------|5---------------6---3-------3---|
G|--------------------------------|------------------------2-4-----|
D|--------------------------------|--------------------------------|
A|--------------------------------|--------------------------------|
E|--------------------------------|--------------------------------|
 
E|--------------------------------|--------------------------------|
B|3-------------------------------|--------------------------------|
G|--------------------------------|--------------------------------|
D|--------------------------------|--------------------------------| (x3)
A|--------------------------------|--------------------------------|
E|--------------------------------|--------------------------------|
 
E|--------1-------2---------------|5---3---2-----------------------|
B|--------3-------3---------------|------------5---3---------------|
G|--------------------------------|--------------------2---3---3---|
D|--------------------------------|--------------------------------|
A|--------------------------------|--------------------------------|
E|--------------------------------|--------------------------------|
 
[Chorus]                                                           
E|--------------------------------|--------------------------------|
B|0-------------------------------|--------------------------------|
G|--------------------------------|--------------------------------|
D|--------------------------------|--------------------------------| (x2)
A|--------------------------------|--------------------------------|
E|--------------------------------|--------------------------------|

E|--------------------------------|--------------------------------|
B|--------------------------------|--------------------------------|
G|--------------------------------|0-------------------------------|
D|--------------------1---2-------|--------------------------------|
A|--------------------------------|--------------------------------|
E|--------------------------------|--------------------------------|
 
E|--------------------------------|--------------------------------|
B|--------------------------------|--------------------------------|
G|2-------------------------------|2---------------0-------2-------|
D|--------------------2---4-------|--------2-----------------------|
A|--------------------------------|--------------------------------|
E|--------------------------------|--------------------------------|
 
E|--------------------------------|--------------------------------|
B|--------------------------------|--------------------------------|
G|--------------------------------|--------------------------------|
D|--------------------------------|--------------------------------| (x2)
A|--------------------------------|--------------------------------|
E|--------------------------------|--------------------------------|

E|--------------------------------|--------------------------------|
B|--------------------------------|--------------------------------|
G|--------2---0-------------------|--------------------------------|
D|----------------2---0---2---0---|--------------------------------|
A|--------------------------------|--------------------------------|
E|--------------------------------|--------------------------------|
 
E|--------------------------------|------------------------2---5---|
B|--------------------------------|----------------2---5-----------|
G|----------------------------2---|----2---4---5-------------------|
D|--------------------2---4-------|--------------------------------|
A|----0---2---3---4---------------|--------------------------------|
E|--------------------------------|--------------------------------|
 
[Verse]                                                            
E|10------------------------------|--------------------------------|
B|--------------------------------|--------------------------------|
G|--------------------------------|--------------------------------|
D|--------------------------------|--------------------------------|
A|--------------------------------|--------------------------------|
E|--------------------------------|--------------------------------|
 
E|--------------------------------|--------------------------------|
B|--------------------------------|--------------------------------|
G|--------------------------------|--------------------------------|
D|--------------------------------|--------------------------------| (x2)
A|--------------------------------|--------------------------------|
E|--------------------------------|--------------------------------|

E|--------5-----------------------|2---5---------------------------|
B|----------------5---3---5---3---|--------5---3-------3-------3---|
G|--------------------------------|----------------4-------4-------|
D|--------------------------------|--------------------------------|
A|--------------------------------|--------------------------------|
E|--------------------------------|--------------------------------|
 
E|--------------------------------|--------------------------------|
B|3-------------------------------|--------------------------------|
G|--------------------------------|--------------------------------|
D|--------------------------------|--------------------------------| (x3)
A|--------------------------------|--------------------------------|
E|--------------------------------|--------------------------------|

E|----14----------12------10------|--------2-------2---------------|
B|--------------------------------|------------------------3-------|
G|----14----------12------11------|--------------------------------|
D|--------------------------------|--------------------------------|
A|--------------------------------|--------------------------------|
E|--------------------------------|--------------------------------|
 
[Chorus]                                                          
E|--------------------------------|--------------------------------|
B|--------------------------------|--------------------------------|
G|--------------------------------|--------------------------------|
D|--------------------------------|--------------------------------| (x2)
A|--------------------------------|--------------------------------|
E|--------------------------------|--------------------------------|

E|--------------------------------|--------------------------------|
B|--------------------------------|--------------------------------|
G|--------------------------------|0-------------------------------|
D|--------------------1---2-------|--------------------------------|
A|--------------------------------|--------------------------------|
E|--------------------------------|--------------------------------|
 
E|--------------------------------|--------------------------------|
B|--------------------------------|--------------------------------|
G|2-------------------------------|2---------------0-------2-------|
D|--------------------2---4-------|--------2-----------------------|
A|--------------------------------|--------------------------------|
E|--------------------------------|--------------------------------|
                                                                    
E|--------------------------------|--------------------------------|
B|--------------------------------|--------------------------------|
G|--------------------------------|--------------------------------|
D|--------------------------------|--------------------------------| (x2)
A|--------------------------------|--------------------------------|
E|--------------------------------|--------------------------------|

E|--------------------------------|--------------------------------|
B|--------------------------------|--------------------------------|
G|--------2---0-------------------|--------------------------------|
D|----------------2---0---2---0---|--------------------------------|
A|--------------------------------|--------------------------------|
E|--------------------------------|--------------------------------|

                                  [Solo]
E|--------------------------------|----------------------------10--|
B|--------------------------------|------------------------7-------|
G|--------------------------------|--------------------10----------|
D|--------------------------------|--------------------------------|
A|--------------------------------|--------------------------------|
E|--------------------------------|--------------------------------|
 
E|--------7-------5---------------|2-------------------0-------0---|
B|------------------------7-------|----0-------3---3-------3-------|
G|--------------------------------|--------------------------------|
D|--------------------------------|--------------------------------|
A|--------------------------------|--------------------------------|
E|--------------------------------|--------------------------------|
 
E|--------7-----------------------|--------------------------------|
B|----------------5---------------|--------0-------0---3-------3---|
G|--------------------7---4---7---|------------2-------------------|
D|--------------------------------|--------------------------------|
A|--------------------------------|--------------------------------|
E|--------------------------------|--------------------------------|
 
E|------------------------7-------|------------------------9-------|
B|--------8-----------------------|--------10----------------------|
G|4---------------7---------------|6---------------9---------------|
D|--------------------------------|--------------------------------|
A|--------------------------------|--------------------------------|
E|--------------------------------|--------------------------------|
 
E|10------------------------------|2-------5-----------------------|
B|----10------------------10------|----------------5-------3-------|
G|--------9---7---9---7-----------|--------------------------------|
D|--------------------------------|--------------------------------|
A|--------------------------------|--------------------------------|
E|--------------------------------|--------------------------------|
 
E|--------2---5-------------------|10------------------------------|
B|----------------5---3-----------|----10--------------------------|
G|--------------------------------|--------9---7---9---7-----------|
D|--------------------------------|--------------------------------|
A|--------------------------------|--------------------------------|
E|--------------------------------|--------------------------------|
 
E|--------7-----------------------|--------------------------------|
B|----------------7---------------|--------0---3-----------0-------|
G|4-------------------------------|--------------------------------|
D|--------------------------------|--------------------------------|
A|--------------------------------|--------------------------------|
E|--------------------------------|--------------------------------|
 
E|------------------------7-------|--------9---------------12------|
B|--------8-----------------------|----------------10--------------|
G|4-----------4---7---------------|9-----------9-------------------|
D|--------------------------------|--------------------------------|
A|--------------------------------|--------------------------------|
E|--------------------------------|--------------------------------|
 
E|----14----------13------12------|--------------------------------|
B|--------------------------------|--------3-------3-------3---2---|
G|----14----------13------12--11--|--------------------------------|
D|--------------------------------|--------------------------------|
A|--------------------------------|--------------------------------|
E|--------------------------------|--------------------------------|

[Chorus] 
E|--------------------------------|--------------------------------|
B|--------------------------------|--------------------------------|
G|--------------------------------|--------------------------------|
D|--------------------------------|--------------------------------| (x3)
A|--------------------------------|--------------------------------|
E|--------------------------------|--------------------------------|

E|--------------------------------|--------------------------------|
B|--------2-------0---------------|2---2---------------------------|
G|--------------------2-----------|----------------2---------------|
D|------------------------4---2---|--------------------------------|
A|--------------------------------|--------------------------------|
E|--------------------------------|--------------------------------|

[Outro] 
E|--------------------------------|--------------------------------|
B|--------------------------------|--------------------------------|
G|--------------------------------|--------------------------------|
D|--------------------------------|--------------------------------| (x7)
A|--------------------------------|--------------------------------|
E|--------------------------------|--------------------------------|

E|--------2-------0-------0-------|--------------------------------|
B|--------------------3-------3---|3-------------------------------|
G|--------------------------------|--------------------------------|
D|--------------------------------|--------------------------------|
A|--------------------------------|--------------------------------|
E|--------------------------------|--------------------------------|
 
E|--------------------------------|--------------------------------|
B|--------------------------------|--------------------------------|
G|--------------------------------|--------------------------------|
D|--------------------------------|--------------------------------| (x2)
A|--------------------------------|--------------------------------|
E|--------------------------------|--------------------------------|

E|--------------------------------|------------------------2---5---|
B|--------------------------------|----------------5---6-----------|
G|--------------------------------|------------2-------------------|
D|--------------------------------|--------4-----------------------|
A|--------------------------------|2---4---------------------------|
E|--------------------------------|--------------------------------|
                                                                    
E|10------7-----------------------|--------5-------5---------------|
B|----------------10------7---10--|--------5-------7---------------|
G|--------------------9-----------|7-------6-------7---------------|
D|--------------------------------|--------------------------------|
A|--------------------------------|--------------------------------|
E|--------------------------------|--------------------------------|
Suggest correction
Creating personal tab
Creating personal tab
You can edit any tab online and save it as your Personal.

You can edit, replace or remove any tab part or add personal notes – all changes will be seen only by you.

Personal tabs can be accessed anytime from any device, even offline.
Learn more »
Give kudos to tab author, rate the tab!
1 2 3 4 5
comments
print report bad tab
guest
You may want to rate the tab now too:
select rating
Wanna post a correction for this tab? Suggest correction