Oops, an error
Loading. Please wait.

Cowboy Casanova tab

version 1
version 1

Whole song

Interactive

1,015 views 1 this week
no commentswrite comment
1 2 3 4 5
1 last vote to show rating
add to favorites
×
Save as Personal and add changes to this tab that will be seen only by you. Learn more ›
×
You can save this tab as Personal to edit and correct it or add notes. All changes will be seen only by you. Learn more »
launch autoscroll
font size
0
reset
how to read this tab
guitar tuner
edit
Autoscroll
slow
fast
+/-
esc
set tempo
stop
Come for the Country, stay for the guitar and Rock backing plus simple solos. I could not resist the allure of
being able to use guitar.

Intro: e|-----------------------------|
       B|-----------------------------|
       G|-x-xxx-xxx-xxx-xxx-xxx-xx-xx-|
       D|-x-xxx-xxx-xxx-xxx-xxx-xx-xx-|
       A|-x-xxx-xxx-xxx-xxx-xxx-xx-xx-|
       E|-----------------------------|

       e|-------------------|     e|-----|
       B|-------------------|     B|-----|
       G|-7-x------5-5-33-x-| X3  G|-77~-|
       D|-7-x-33-x-5-5-33-x-|     D|-77~-|
       A|-5-x-33-x-3-3-11-x-|     A|-55~-|
       E|-----11-x----------|     E|-----|

Verse: e|-------------------|     e|-----|
       B|-------------------|     B|-----|
       G|-7-x------5-5-33-x-| X3  G|-77~-| (Repeat entire part twice)
       D|-7-x-33-x-5-5-33-x-|     D|-77~-|
       A|-5-x-33-x-3-3-11-x-|     A|-55~-|
       E|-----11-x----------|     E|-----|

          You better take it from me

          That boy is like a disease

          You're running, you're trying, you're trying to hide

          And you're wondering why you can't get free

          He's like a curse, he's like a drug

          You get addicted to his love

          You wanna get out, but he's holding you down 'cause you can't live without one more 

       e|--------------------------|
       B|--------------------------|
       G|-2-22-22-22-25-55-55-55-5-|
       D|-2-22-22-22-25-55-55-55-5-|
       A|-0-00-00-00-03-33-33-33-3-|
       E|--------------------------|

          touch. He's a 

Chorus: e|---------------------------------------------|
        B|---------------------------------------------|
        G|-7----------------3-33-33-33-32-22-22-22-2-x-| X2
        D|-7-2~-3-33-33-33-33-33-33-33-32-22-22-22-2-x-|
        A|-5-2~-3-33-33-33-31-11-11-11-10-00-00-00-0-x-|
        E|---0~-1-11-11-11-1---------------------------|

           good time cowboy casanova, leaning up against the record machine.

           He looks like a cool drink of water, but he's candy-coated misery

        e|--------------------------------------------------|
        B|--------------------------------------------------|
        G|-7-77-7------------------------------2-22-22-22-2-|
        D|-7-77-72-22-23-33-33-33-35-55-55-55-52-22-22-22-2-|
        A|-5-55-52-22-23-33-33-33-35-55-55-55-50-00-00-00-0-|
        E|-------0-00-01-11-11-11-13-33-33-33-3-------------|

           He's the devil in disguise, a snake with blue eyes and he only comes out at night.

        e|-------------------|
        B|-------------------|
        G|-3-33-33-33-3-5-5~-|
        D|-3-33-33-33-3-5-5~-|
        A|-1-11-11-11-1-3-3~-|
        E|-------------------|

           Gives you feelings that you don't want to fight. You better run for your

Pre-Verse: e|-------------------|     e|-----|
           B|-------------------|     B|-----|
           G|-7-x------5-5-33-x-| X3  G|-77~-|
           D|-7-x-33-x-5-5-33-x-|     D|-77~-|
           A|-5-x-33-x-3-3-11-x-|     A|-55~-|
           E|-----11-x----------|     E|-----|
 
              life

Verse: e|-------------------|     e|--------------------------|
       B|-------------------|     B|--------------------------|
       G|-7-x------5-5-33-x-| X3  G|-------------8-88-88-88-8-|
       D|-7-x-33-x-5-5-33-x-|     D|-3-33-33-33-38-88-88-88-8-|
       A|-5-x-33-x-3-3-11-x-|     A|-3-33-33-33-36-66-66-66-6-|
       E|-----11-x----------|     E|-1-11-11-11-1-------------|

          I see that look on your face

          You ain't hearing what I say

          So I'll say it again 'cause I've been where you've been and I know how it ends

          You can't get away

       e|-------------------|     
       B|-------------------|    
       G|-7-x------5-5-33-x-| X3
       D|-7-x-33-x-5-5-33-x-|   
       A|-5-x-33-x-3-3-11-x-|   
       E|-----11-x----------|   

          Don't even look in his eyes

          He'll tell you nothing but lies

          And you wanna believe, but you won't be deceived if you listen to me and take my

       e|--------------------------|
       B|--------------------------|
       G|-2-22-22-22-25-55-55-55-5-|
       D|-2-22-22-22-25-55-55-55-5-|
       A|-0-00-00-00-03-33-33-33-3-|
       E|--------------------------|

          advice. He's a

Chorus: e|---------------------------------------------|
        B|---------------------------------------------|
        G|-7----------------3-33-33-33-32-22-22-22-2-x-| X2
        D|-7-2~-3-33-33-33-33-33-33-33-32-22-22-22-2-x-|
        A|-5-2~-3-33-33-33-31-11-11-11-10-00-00-00-0-x-|
        E|---0~-1-11-11-11-1---------------------------|

           good time cowboy casanova, leaning up against the record machine.

           He looks like a cool drink of water, but he's candy-coated misery

        e|--------------------------------------------------|
        B|--------------------------------------------------|
        G|-7-77-7------------------------------2-22-22-22-2-|
        D|-7-77-72-22-23-33-33-33-35-55-55-55-52-22-22-22-2-|
        A|-5-55-52-22-23-33-33-33-35-55-55-55-50-00-00-00-0-|
        E|-------0-00-01-11-11-11-13-33-33-33-3-------------|

           He's the devil in disguise, a snake with blue eyes and he only comes out at night.

        e|-------------------|
        B|-------------------|
        G|-3-33-33-33-3-5-5~-|
        D|-3-33-33-33-3-5-5~-|
        A|-1-11-11-11-1-3-3~-|
        E|-------------------|

           Gives you feelings that you don't want to fight. You better run for your life

Solo: e|-(10)-8-(10)-8h(10)~-8h(10)-8-(10)-8h(10)~-8p5~-|  e|-----------------|
      B|------------------------------------------------|  B|-----------------|
      G|------------------------------------------------|  G|-7-7-7-7-7-7-7-7-|
      D|------------------------------------------------|  D|-7-7-7-7-7-7-7-7-|
      A|------------------------------------------------|  A|-5-5-5-5-5-5-5-5-|
      E|------------------------------------------------|  E|-----------------|

Bridge: e|--------------------------------------------------|
        B|--------------------------------------------------|
        G|-777777777777555555555555444444444444333333333333-| X2
        D|-777777777777555555555555444444444444333333333333-|
        A|-555555555555333333333333222222222222111111111111-|
        E|--------------------------------------------------|

           Run, run away. Don't let him mess with your mind. He'll tell you anything you want to hear.

           He'll break your heart. It's just a matter of time. But JUST remember he's a 

Chorus: e|---------------------------------------------|
        B|---------------------------------------------|
        G|-7----------------3-33-33-33-32-22-22-22-2-x-| X2
        D|-7-2~-3-33-33-33-33-33-33-33-32-22-22-22-2-x-|
        A|-5-2~-3-33-33-33-31-11-11-11-10-00-00-00-0-x-|
        E|---0~-1-11-11-11-1---------------------------|

           good time cowboy casanova, leaning up against the record machine.

           He looks like a cool drink of water, but he's candy-coated misery

        e|--------------------------------------------------|
        B|--------------------------------------------------|
        G|-7-77-7------------------------------2-22-22-22-2-|
        D|-7-77-72-22-23-33-33-33-35-55-55-55-52-22-22-22-2-|
        A|-5-55-52-22-23-33-33-33-35-55-55-55-50-00-00-00-0-|
        E|-------0-00-01-11-11-11-13-33-33-33-3-------------|

           He's the devil in disguise, a snake with blue eyes and he only comes out at night.

        e|-------------------|
        B|-------------------|
        G|-3-33-33-33-3-5-5~-|
        D|-3-33-33-33-3-5-5~-|
        A|-1-11-11-11-1-3-3~-|
        E|-------------------|

           Gives you feelings that you don't want to fight. You better run for your life

Outro: e|-------------------|     e|-----|
       B|-------------------|     B|-----|
       G|-7-x------5-5-33-x-| X3  G|-77~-|
       D|-7-x-33-x-5-5-33-x-|     D|-77~-|
       A|-5-x-33-x-3-3-11-x-|     A|-55~-|
       E|-----11-x----------|     E|-----|

          Oh, you better run for your life

          Oh, you better run for your life

Outro Solo: e|-5-3-503-503-(10)~-|
            B|-------------------|
            G|-------------------|
            D|-------------------|
            A|-------------------|
            E|-------------------|

Note: x = Muted String/Palm Mute
      ~ = Held/Extended Note
      The parentheses around certain notes means they are a single note and not two individual ones put together

            
            
Suggest correction
Creating personal tab
Creating personal tab
You can edit any tab online and save it as your Personal.

You can edit, replace or remove any tab part or add personal notes – all changes will be seen only by you.

Personal tabs can be accessed anytime from any device, even offline.
Learn more »
Give kudos to tab author, rate the tab!
1 2 3 4 5
comments
print report bad tab
guest
You may want to rate the tab now too:
select rating
Wanna post a correction for this tab? Suggest correction