Oops, an error
Loading. Please wait.

I Told You So tab

version 3
version 3

Whole song

238 views 1 this week
no commentswrite comment
1 2 3 4 5
3 more votes to show rating
add to favorites
×
Save as Personal and add changes to this tab that will be seen only by you. Learn more ›
×
You can save this tab as Personal to edit and correct it or add notes. All changes will be seen only by you. Learn more »
launch autoscroll
font size
0
reset
how to read this tab
guitar tuner
edit
Autoscroll
slow
fast
+/-
esc
set tempo
stop
Tabbed by tyjamo

Standard Tuning 
Capo 1

Intro:
   G                 Bm             G                 Bm7          Am7
e|-----------------------------2----------------------------2------------0-----|
B|----------------------3------3-----------------------------------------------|
G|-------2h4--2--0---------4---4----------2h4--2--0------------2------------0--|
D|----0--------------4---------4-------0-----------------4------------2--------|
A|-2-----------------2---------2----2-----------------2------------0-----------|
E|-3--------------------------------3------------------------------------------|

Verse:
   G                       Bm                 C              D            
e|-----------3--------3-------------2--------------------0---------2------------|
B|--------3-----------3----------------3--------------1---------------3---------|
G|-----0--------------0----------4--------4---------------------2---------------|
D|----------------------------4--------------------2---------0------------------|
A|--2-------------2--------2------------------0-3-------------------------------|
E|--3-------------3-------------------------------------------------------------|
   G                    C                          G      Em7    Em
e|----------3-------3-----------------0---------------3------3---------0--------|
B|-------3----------3-----------1--------1-----1------3------3---------0--------|
G|----0-------------0--------------0--------0---------0------0------0-----------|
D|---------------------------2-----------------------------------2--------------|
A|-2-------------2------0-3------------------------2------0------2--------------|
E|-3-------------3---------------------------------3------2---------------------|
   A7                             D
e|------------------0---------------------------2-------------------------------|
B|------------2--------2-----2----------3-------3-------------------------------|
G|---------0-----0--------0----------2-----2----2-------------------------------|
D|------2-------------------------0-------------0-------------------------------|
A|-2p0--------------------------------------------------------------------------|
E|------------------------------------------------------------------------------|
  G
e|---------------3------------------------2---------------------0---------2-----|
B|------------------3-----3---------3--------3-----3---------1--------------3---|
G|---------0-----------0---------4-----4--------4---------0------------2--------|
D|------------0---------------4-------------------------------------0-----------|
A|------2---------------------2------------------------3------------------------|
E|-0-3--------------------------------------------------------------------------|

 G                    C                          G      Em7    Em
e|----------3-------3-----------------0---------------3------3---------0--------|
B|-------3----------3-----------1--------1-----1------3------3---------0--------|
G|----0-------------0--------------0--------0---------0------0------0-----------|
D|---------------------------2-----------------------------------2--------------|
A|-2-------------2------0-3------------------------2------0------2--------------|
E|-3-------------3---------------------------------3------2---------------------|

   A7                             D
e|------------------0---------------------------2-2-2-2-------------------------|
B|------------2--------2-----2----------3-------3-3-3-3-------------------------|
G|---------0-----0--------0----------2-----2----2-2-2-2-------------------------|
D|------2-------------------------0-------------0-0-0-0-------------------------|
A|-2p0--------------------------------------------------------------------------|
E|------------------------------------------------------------------------------|

Chorus:
C          G
I told you so
    Bm            C   G
Oh, I told you so
Am                                     D                                 G    D
I told you someday you'd come crawling back and asking me to take you in
C          G
I told you so
        Bm        C   G
But you had to go
         Am                              D
Now I've found somebody new and you will never break my heart in two again

Pre Verse:
   G                 Bm             G                 Bm7          Am7
e|-----------------------------2----------------------------2------------0-----|
B|----------------------3------3-----------------------------------------------|
G|-------2h4--2--0---------4---4----------2h4--2--0------------2------------0--|
D|----0--------------4---------4-------0-----------------4------------2--------|
A|-2-----------------2---------2----2-----------------2------------0-----------|
E|-3--------------------------------3------------------------------------------|

Verse:
   G                       Bm                 C              D            
e|-----------3--------3-------------2--------------------0---------2------------|
B|--------3-----------3----------------3--------------1---------------3---------|
G|-----0--------------0----------4--------4---------------------2---------------|
D|----------------------------4--------------------2---------0------------------|
A|--2-------------2--------2------------------0-3-------------------------------|
E|--3-------------3-------------------------------------------------------------|
   G                    C                          G      Em7    Em
e|----------3-------3-----------------0---------------3------3---------0--------|
B|-------3----------3-----------1--------1-----1------3------3---------0--------|
G|----0-------------0--------------0--------0---------0------0------0-----------|
D|---------------------------2-----------------------------------2--------------|
A|-2-------------2------0-3------------------------2------0------2--------------|
E|-3-------------3---------------------------------3------2---------------------|
   A7                             D
e|------------------0---------------------------2-------------------------------|
B|------------2--------2-----2----------3-------3-------------------------------|
G|---------0-----0--------0----------2-----2----2-------------------------------|
D|------2-------------------------0-------------0-------------------------------|
A|-2p0--------------------------------------------------------------------------|
E|------------------------------------------------------------------------------|
  G
e|---------------3------------------------2---------------------0---------2-----|
B|------------------3-----3---------3--------3-----3---------1---------------3--|
G|---------0-----------0---------4-----4--------4---------0------------2--------|
D|------------0---------------4-------------------------------------0-----------|
A|------2---------------------2------------------------3------------------------|
E|-0-3--------------------------------------------------------------------------|

 G                    C                          G      Em7    Em
e|----------3-------3-----------------0---------------3------3---------0--------|
B|-------3----------3-----------1--------1-----1------3------3---------0--------|
G|----0-------------0--------------0--------0---------0------0------0-----------|
D|---------------------------2-----------------------------------2--------------|
A|-2-------------2------0-3------------------------2------0------2--------------|
E|-3-------------3---------------------------------3------2---------------------|

   A7                             D
e|------------------0---------------------------2-2-2-2-------------------------|
B|------------2--------2-----2----------3-------3-3-3-3-------------------------|
G|---------0-----0--------0----------2-----2----2-2-2-2-------------------------|
D|------2-------------------------0-------------0-0-0-0-------------------------|
A|-2p0--------------------------------------------------------------------------|
E|------------------------------------------------------------------------------|

Chorus:

Chorus:
C          G
I told you so
    Bm            C   G
Oh, I told you so
Am                                     D                                 G    D
I told you someday you'd come crawling back and asking me to take you in
C          G
I told you so
        Bm        C   G
But you had to go
         Am                              D                                G    D
Now I've found somebody new and you will never break my heart in two again
         Am                              D
Now I've found somebody new and you will never break my heart in two again

Outro:
   G                 Bm             G                 Bm7          Am7
e|-----------------------------2----------------------------2------------0--------3--|
B|----------------------3------3--------------------------------------------------3--|
G|-------2h4--2--0---------4---4----------2h4--2--0------------2------------0-----0--|
D|----0--------------4---------4-------0-----------------4------------2-----------0--|
A|-2-----------------2---------2----2-----------------2------------0--------------2--|
E|-3--------------------------------3---------------------------------------------3--|




************************************

| /   slide up
| \   slide down
| h   hammer-on
| p   pull-off
| ~   vibrato
| +   harmonic
| x   Mute note
| b   Bend
| pb  Pre-bend
| br  Bend release
| pbr Pre-bend release
| brb Bend release bend

            
            
Suggest correction
Creating personal tab
Creating personal tab
You can edit any tab online and save it as your Personal.

You can edit, replace or remove any tab part or add personal notes – all changes will be seen only by you.

Personal tabs can be accessed anytime from any device, even offline.
Learn more »
Give kudos to tab author, rate the tab!
1 2 3 4 5
comments
print report bad tab
guest
You may want to rate the tab now too:
select rating
Wanna post a correction for this tab? Suggest correction