Oops, an error
Loading. Please wait.

Jesus Take The Wheel Bass Tab

version 1
version 1

Whole song

Interactive

1,212 views 12 this week
2 commentsread comments
1 2 3 4 5
3 more votes to show rating
add to favorites
launch autoscroll
font size
0
reset
guitar tuner
Autoscroll
slow
fast
+/-
esc
set tempo
stop
Help us to improve Ultimate-Guitar.com Take our survey!
×
Author
Difficulty
novice
             Jesus, Take the Wheel - Carrie Underwood


Tabbed by: Joey


E-mail: joey64254@aol.com


Metronome = 76 BPM


Tuning: Standard EADG tuning



this tab is at least 99% accurate and is the final updated corrected version.




Intro: repeat(x2)


G|-7--6--2--4--2------------------------------------------------------------
D|--------------------------------------------------------------------------
A|--------------------------------------------------------------------------
E|--------------------------------------------------------------------------




Verse 1: the verse is pretty much the same thing as the intro but one less note.



G|-7--6--4--2--7--6--4--2--7--6--4--2--4--2--5--7--6--4--2--7--6--4--2------
D|-------------------------------------------7------------------------------
A|--------------------------------------------------------------------------
E|--------------------------------------------------------------------------





Pre-Chorus: on the pre-chorus i do a hammer, but it's actually only a D, i just think it
sounds better with the hammer.




G|-7--6--4--2---------------------------------------------------------------
D|-----------------------12--12---14h16-0-----------------------------------
A|--------------10--10------------------------------------------------------
E|--------------------------------------------------------------------------





Chorus:



G|--------------------------------------------------------------------------
D|-0--0--0--0---------------------------------------------------------------
A|----------------0-----0--0--7-----------2--4--5--0--5--5--0--0--0-----2---
E|-------------------0-----------0--0--0-----------------------------0------





G|-------------------------------7--7--7-------7--6--2--4--2--7--6--2--5----
D|--------------9--11--12------------------5--------------------------7----
A|---------------------------0----------------------------------------------
E|--0--0--0-----------------------------------------------------------------




Verse 2: now this part i change octaves because of the later g and f#



G|--------------------------------------------------------------------------
D|-----------------------------------------------4--4--4--------------------
A|--5--4--2-----5--4--2-----5--4--2-----------------------------5--5--0--5-0
E|-----------5-----------5-----------5--3--3--3------------3--3-------------





2nd Chorus:


G|--------------------------------------------------------------------------
D|--0--0--0--0--------------------------------------------------------------
A|--------------0-----0--0--7-----------2--4--5--0--5--5--0--0--0-----2-----
E|-----------------0-----------0--0--0-----------------------------0--------




G|--------------------------------------------------------------------------
D|------------9--11--12-----------------------------------------------------
A|--------------------------------------------------------------------------
E|--0--0--0-----------------------------------------------------------------



Bridge: this is the trickiest part of the whole song. not that bad actually.



        before oh, jesus                 oh


G|--------------------------------------------------------------------------
D|-----12--12--12--12-----12--12--12--12------0--0--0--0--------------------
A|--0------------------0------------------0---------------0------0--0-------
E|-----------------------------------------------------------0--------------




G|--------------------------------------------------------------------------
D|--2-----2--2--------------------------------------------------------------
A|-----2--------2-----2--4--5--0--5--5--5--5--0--0--0-----2-----------------
E|-----------------2----------------------------------0-------0--0--0-------





G|-------------------------------------------------7------------------------
D|--------------------------------------------------------------------------
A|--2--4--5--0--5--5--5--5--2--4--5--0--5--0--5-----------------------------
E|-----------------------------------------------5--------------------------





Final Part:



G|--19--18--16--18--16--7--6--2--4--2--7--6--2---7--------------------------
D|-----------------------------------------------5--------------------------
A|--------------------------------------------------------------------------
E|--------------------------------------------------------------------------




comments: let me now if i'm rigt or wrong, thanks.




| /  slide up
| \  slide down
| h  hammer-on
| p  pull-off
| ~  vibrato
| +  harmonic
| x  Mute note   
Suggest correction
Give kudos to tab author, rate the tab!
1 2 3 4 5
comments
print report bad tab
2 comments total.
0 reply
joey64254 31 Jan 07, 2013 07:53 AM

sorry the 7 should be this 5
7

0 reply
joey64254 31 Jan 07, 2013 08:23 AM

update on the way

guest
You may want to rate the tab now too:
select rating
Wanna post a correction for this tab? Suggest correction