Oops, an error
Loading. Please wait.

Quitter Tab

5,056 views 1 this week
no commentswrite comment
1 2 3 4 5
x 3
add to favorites
launch autoscroll
font size
0
reset
how to read this tab
guitar tuner
Autoscroll
slow
fast
+/-
esc
set tempo
stop
Help us to improve Ultimate-Guitar.com Take our survey!
×
Author
-------------------------------------------------------------------------------
                             Quitter - Carrie Underwood
-------------------------------------------------------------------------------
Tabbed by: talflick

Email: talek_cornish@hotmail.com

covering this song with a good friend of mine, really catchy, but quite simple (it is 
pop music !) anyway, most of these chords are right, and I'll put the riffs in there in 
you want to learn them as well.

If this tab shows up under anyone else's name other than talflick, that's plagarism. 
should be given where credit is due, don't steal my work and call it your own, and if you 
this exact tab anywhere else without my name on it, please email me with a link.

thanks :)

Tuning: standard.

Intro:
-|--C-----------------|----------Dm--|--Am----------------|----------G---|
e|--------------------|--------------|--------------------|--------------|
B|--5-----5---5----5--|--5---5---6---|--5-----5---5----5--|--5---5---3---|
G|--5-----5---5----5--|--5---5---7---|--5-----5---5----5--|--5---5---4---|
D|--5-----5---5----5--|--5---5---7---|--7-----7---7----7--|--7---7---5---|
A|--3-----3---3----3--|--3---3---5---|--7-----7---7----7--|--7---7---5---|
E|--------------------|--------------|--5-----5---5----5--|--5---5---3---|

-|--C-----------------|----------Dm--|--Am----------------|--G-----------|
e|--------------------|--------------|--------------------|--------------|
B|--5-----5---5----5--|--5---5---6---|--5-----5---5----5--|--3---3---3---|
G|--5-----5---5----5--|--5---5---7---|--5-----5---5----5--|--4---4---4---|
D|--5-----5---5----5--|--5---5---7---|--7-----7---7----7--|--5---5---5---|
A|--3-----3---3----3--|--3---3---5---|--7-----7---7----7--|--5---5---5---|
E|--------------------|--------------|--5-----5---5----5--|--3---3---3---|

C          Dm  Am       G     C          Dm      Am      G
Here's how it goes, boy meets girl, girl leaves boy
C         Dm  Am        G    C        Dm  Am   G
That's all I know, all I've done, all my life

(G)    Am                 F                       C                  G
'Cause throughout my history, I've only been with jerks who couldn't take it
(G) Am                   F                         C                  G
But you see the picket fence, a swing on the front porch, with us two on it

(G)  C     Am       F             G       (see "chorus riff")
When I believe that nothing lasts forever
(G)  C     Am       F             G
You stay with me, keeping us together
(G)  C  C/B  Am          F            G             C
And make me feel like I never, ever wanna give you up,
(C)  Am        F             G
'Til now, I've always been a quitter

(play intro riff)
C   Dm   Am   G   x2

C       Dm  Am        G   C         Dm   Am      G
You rescued me, saved my life, just in time
C        Dm  Am        G   C               Dm  Am   G
Saw past all my issues and scars, and made me try

       Am                           F                   C
'Cause ohhh, the way you're kissing me makes it hard to breathe,
(C)         G
but I still like it
          Am                  F                    C         G
Oh, oh, it truly feels like a dream, you know exactly how I want it

(G)  C     Am       F             G       (see "chorus riff")
When I believe that nothing lasts forever
(G)  C     Am       F             G
You stay with me, keeping us together
(G)  C  C/B  Am          F            G             C
And make me feel like I never, ever wanna give you up,
(C)  Am        F             G
'Til now, I've always been a quitter

(intro riff)
C  Dm  Am          G      C       Dm    Am   G
       I've always been a quitter

Solo (steel/slide guitar):
    C                        Dm        Am                         G
e|-12----12----------12----12--------|-12----12----------12----12----------|
B|---13-----15-\-13----13----15-\-13-|---13-----15-\-13----13----15-\-13---|
G|-----12----------------12----------|-----12----------------12------------|
D|-----------------------------------|-------------------------------------|
A|-----------------------------------|-------------------------------------|
E|-----------------------------------|-------------------------------------|
    C                                    Dm            Am        N.C.
e|-19/20\19/20\19------------19/20\19/20\19----------|---------------------|
B|----------------20------------------------20-------|---------------------|
G|-------------------17------------------------17----|---------------------|
D|----------------------19------------------------19-|-21\-----------------|
A|---------------------------------------------------|---------------------|
E|---------------------------------------------------|---------------------|

(G)  C     Am       F             G       (see "chorus riff")
When I believe that nothing lasts forever
(G)  C     Am       F             G
You stay with me, keeping us together
(G)  C  C/B  Am          F            G             C
And make me feel like I never, ever wanna give you up,
(C)  Am        F             G
'Til now, I've always been a quitter
C  Am      F             G
      I've always been a quitter
C

CHORUS RIFF !
it's pretty much the chords that are in the chorus, all you have to do is this:
    C                Am                F                  G            x2
e|-----------------|-----------------|------------------|-----------------|
B|--------1--------|--------1--------|--------1---------|--------0--------|
G|----0-------0----|----2-------0----|----2-------0-----|----0-------0----|
D|----2------------|----2------------|----3-------------|----0------------|
A|-3---------------|-0---------------|----3-----------0-|----2----------2-|
E|---------------3-|---------------3-|-1----------------|-3---------------|
    C      C/B       Am                F                  G            x2
e|-----------------|-----------------|------------------|-----------------|
B|--------1--------|--------1--------|--------1---------|--------0--------|
G|----0-------0----|----2-------0----|----2-------0-----|----0-------0----|
D|----2------------|----2------------|----3-------------|----0------------|
A|-3--------2------|-0---------------|----3-----------0-|----2----------2-|
E|---------------3-|---------------3-|-1----------------|-3---------------|

and there you are !
enjoy the new album, kiddies.
Suggest correction
Give kudos to tab author, rate the tab!
1 2 3 4 5
comments
print report bad tab
guest
You may want to rate the tab now too:
select rating
Wanna post a correction for this tab? Suggest correction