Oops, an error
Loading. Please wait.

Zhong Nan Hai tab

118 views 1 this week
no commentswrite comment
1 2 3 4 5
3 more votes to show rating
add to favorites
×
Save as Personal and add changes to this tab that will be seen only by you. Learn more ›
×
You can save this tab as Personal to edit and correct it or add notes. All changes will be seen only by you. Learn more »
launch autoscroll
font size
0
reset
how to read this tab
guitar tuner
edit
Autoscroll
slow
fast
+/-
esc
set tempo
stop
-------------------------------------------------------------------------------
                             中南海 (Zhongnanhai) - Carsick Cars
-------------------------------------------------------------------------------
Tabbed by: ianisthewalrus

Tuning: Standard

forgive me, it's been a while since i wrote out a tab. this one is based off of a Bmaj chord shape.
in live footage i have seen, it appears the guitarist is playing well above the 12th fret. 
i am unable to reproduce the sound of the album up there, but it sounds good "my way".


e|---------------------------------------------------------------------------------|
B|--------4--44-4-2---------4-4--44-4-2---------4-4--44-4-2----5--5-5--222-2-4-4---|
G|---4----4--44-4-4----4-4--4-4--44-4-4----4-4--4-4--44-4-4----4--4-4--444-4-4-4---|
D|---4----4--44-4-4----4-4--4-4--44-4-4----4-4--4-4--44-4-4----4--4-4--444-4-4-4---|
A|---2-----------------2-2-----------------2-2-------------------------------------|
E|---0-----------------0-0-----------------0-0-------------------------------------|

rinse, repeat.

listen to the album for the exact strumming rhythm, ive done my best.


************************************

| /   slide up
| \   slide down
| h   hammer-on
| p   pull-off
| ~   vibrato
| +   harmonic
| x   Mute note
| b   Bend
| pb  Pre-bend
| br  Bend release
| pbr Pre-bend release
| brb Bend release bend

************************************

            
            
Suggest correction
Creating personal tab
Creating personal tab
You can edit any tab online and save it as your Personal.

You can edit, replace or remove any tab part or add personal notes – all changes will be seen only by you.

Personal tabs can be accessed anytime from any device, even offline.
Learn more »
Give kudos to tab author, rate the tab!
1 2 3 4 5
comments
print report bad tab
guest
You may want to rate the tab now too:
select rating
Wanna post a correction for this tab? Suggest correction