Oops, an error
Loading. Please wait.

27 Steps tab

by Cartel
88 views 1 this week
no commentswrite comment
1 2 3 4 5
3 more votes to show rating
add to favorites
×
Save as Personal and add changes to this tab that will be seen only by you. Learn more ›
×
You can save this tab as Personal to edit and correct it or add notes. All changes will be seen only by you. Learn more »
launch autoscroll
font size
0
reset
how to read this tab
guitar tuner
edit
Autoscroll
slow
fast
+/-
esc
set tempo
stop
Author
Difficulty
-------------------------------------------------------------------------------
                             27 Steps - Cartel
-------------------------------------------------------------------------------
Tabbed by: Adam Guion
E-mail: AdamGuion@Gmail.com

Tuning: Standard tuning

Intro
Guitar One
e|-----------------------------------------------------------------------------|
B|-----------------------------------------------------------------------------|
G|-9-9---7-9-12--9-9---7-9-12---12-12-12-12-12-12-12-12-11-11-11-11-11-11-11-11|
D|-x-x---x-x--x--x-x---x-x--x----x--x--x--x--x--x--x--x--x--x--x--x--x--x--x--x|
A|-7-7---5-7-10--7-7---5-7-10---10-10-10-10-10-10-10-10--9--9--9--9--9--9--9--9|
E|-----------------------------------------------------------------------------|

Guitar Two
e|-----------------------------------------------------------------------------|
B|-----------------------------------------------------------------------------|
G|-9-9---7-9-12--9-9---7-9-12---12-12-12-12-12-12-12-12-14-14-14-14-14-14-14-14|
D|-x-x---x-x--x--x-x---x-x--x----x--x--x--x--x--x--x--x--x--x--x--x--x--x--x--x|
A|-7-7---5-7-10--7-7---5-7-10---10-10-10-10-10-10-10-10-12-12-12-12-12-12-12-12|
E|-----------------------------------------------------------------------------|

Guitar Three
Haven't figured out whether these are proper chords or power chords, so i made both.
e|------------------------------3-3-3-3-3-3-3-3-2-2-2-2-2-2-2-2----------------|
B|-1-1-----------1-1------------0-0-0-0-0-0-0-0-3-3-3-3-3-3-3-3----------------|
G|-2-2-----------0-0------------0-0-0-0-0-0-0-0-2-2-2-2-2-2-2-2----------------|
D|-2-2-----------2-2------------0-0-0-0-0-0-0-0-0-0-0-0-0-0-0-0----------------|
A|-0-0-----------3-3------------2-2-2-2-2-2-2-2-0-0-0-0-0-0-0-0----------------|
E|------------------------------3-3-3-3-3-3-3-3--------------------------------|

e|------------------------------3-3-3-3-3-3-3-3--------------------------------|
B|-1-1-----------1-1------------0-0-0-0-0-0-0-0--------------------------------|
G|-2-2-----------0-0------------0-0-0-0-0-0-0-0--------------------------------|
D|-2-2-----------2-2------------0-0-0-0-0-0-0-0-4-4-4-4-4-4-4-4----------------|
A|-0-0-----------3-3------------2-2-2-2-2-2-2-2-5-5-5-5-5-5-5-5----------------|
E|------------------------------3-3-3-3-3-3-3-3-2-2-2-2-2-2-2-2----------------|

OR

e|------------------------------------------------------------------------------|
B|------------------------------------------------------------------------------|
G|--------------------------------------------------------------7-7-7-7-7-7-7-7-|
D|-7-7--------------------1010------------------5-5-5-5-5-5-5-5-7-7-7-7-7-7-7-7-|
A|-7-7--------------------1010------------------5-5-5-5-5-5-5-5-5-5-5-5-5-5-5-5-|
E|-5-5-(5)(5)(5)(5)(5)(5)-8-8-(8)(8)(8)(8)(8)(8)3-3-3-3-3-3-3-3-----------------|

e|-----------------------------------------------------------------------------|
B|-----------------------------------------------------------------------------|
G|-----------------------------------------------------------------------------|
D|-7-7--------------------1010------------------5-5-5-5-5-5-5-5-4-4-4-4-4-4-4-4|
A|-7-7--------------------1010------------------5-5-5-5-5-5-5-5-5-5-5-5-5-5-5-5|
E|-5-5-(5)(5)(5)(5)(5)(5)-8-8-(8)(8)(8)(8)(8)(8)3-3-3-3-3-3-3-3-2-2-2-2-2-2-2-2|

Verse
Guitar One
e|---------------------------------------------------------------------------|
B|---------------------------------------------------------------------------|
G|---------------------------------------------------------------------------|
D|-----2~~~----2-----------0-------0-2~~~------------------------------------|
A|---3-------3---3~~~----2---2---2-------------------------------------------|
E|-5-------------------3-------2---------------------------------------------|

e|---------------------------------------------------------------------------|
B|---------------------------------------------------------------------------|
G|----------------5-5-5-5-5-5-5-5--------------------------------------------|
D|----------------3-3-3-3-3-3-3-3--------------------------------------------|
A|2-2-2-2-2-2-2-2-----------------5-5-5-5-5-5-5-5-4-4-4-4-4-4-4-4------------|
E|0-0-0-0-0-0-0-0-----------------3-3-3-3-3-3-3-3-2-2-2-2-2-2-2-2------------|

e|---------------------------------------------------------------------------|
B|---------------------------------------------------------------------------|
G|----------------4-4-4-4-4-4-4-4--------------------------------------------|
D|----------------2-2-2-2-2-2-2-2-----4---4-4---4-----4---4-4----------------|
A|2-2-2-2-2-2-2-2-----------------5-5-5-5-5-5-5-5-5-5-5-5-5-5-5-5------------|
E|0-0-0-0-0-0-0-0-----------------3-3-3-3-3-3-3-3-3-3-3-3-3-3-5-3------------|

Guitar Two

e|-3---3---5---3---7---3---3---5---2---2---3---2---0-0-0-0-2-2-2-2-----------|
B|---5---5---5---5---5---5---5---5---5---5---5---5-5-5-5-5-3-3-3-3-----------|
G|---------------------------------------------------------------------------|
D|---------------------------------------------------------------------------|
A|---------------------------------------------------------------------------|
E|---------------------------------------------------------------------------|

e|-3-3-3-3-3-3-3-3-5-5-5-5-5-5-5-5-2-2-2-2-2-2-2-2-2-2-2-2-2-2-2-2-----------|
B|-5-5-5-5-5-5-5-5-5-5-5-5-5-5-5-5-3-3-3-3-3-3-3-3-3-3-3-3-3-3-3-3-----------|
G|---------------------------------------------------------------------------|
D|---------------------------------------------------------------------------|
A|---------------------------------------------------------------------------|
E|---------------------------------------------------------------------------|

Chorus
e|------------------------------------------------------------------------------|
B|------------------------------------------------------------------------------|
G|--------------------------------------------------------------7-7-7-7-7-7-7-7-|
D|-7-7--------------------1010------------------5-5-5-5-5-5-5-5-7-7-7-7-7-7-7-7-|
A|-7-7--------------------1010------------------5-5-5-5-5-5-5-5-5-5-5-5-5-5-5-5-|
E|-5-5-(5)(5)(5)(5)(5)(5)-8-8-(8)(8)(8)(8)(8)(8)3-3-3-3-3-3-3-3-----------------|

e|-----------------------------------------------------------------------------|
B|-----------------------------------------------------------------------------|
G|-----------------------------------------------------------------------------|
D|-7-7--------------------1010------------------5-5-5-5-5-5-5-5-4-4-4-4-4-4-4-4|
A|-7-7--------------------1010------------------5-5-5-5-5-5-5-5-5-5-5-5-5-5-5-5|
E|-5-5-(5)(5)(5)(5)(5)(5)-8-8-(8)(8)(8)(8)(8)(8)3-3-3-3-3-3-3-3-2-2-2-2-2-2-2-2|


e|---------------------------------------------------------------------------|
B|---------------------------------------------------------------------------|
G|-----------5-------------7-------------------------------------------------|
D|-7---------5-X8---5------7--X8---------------------------------------------|
A|-7--X8-----3------5-X8---5-------------------------------------------------|
E|-5----------------3--------------------------------------------------------|

e|-----------------------------------------------------------------------------|
B|-----------------------------------------------------------------------------|
G|-----------------------------------------------------------------------------|
D|-7-7--------------------1010------------------5-5-5-5-5-5-5-5-4-4-4-4-4-4-4-4|
A|-7-7--------------------1010------------------5-5-5-5-5-5-5-5-5-5-5-5-5-5-5-5|
E|-5-5-(5)(5)(5)(5)(5)(5)-8-8-(8)(8)(8)(8)(8)(8)3-3-3-3-3-3-3-3-2-2-2-2-2-2-2-2|

Verse
Guitar One
e|-0----5------------0----5--------------------------------------------------|
B|-1----3------------1----3--------------------------------------------------|
G|-2----4------------2----4--------------------------------------------------|
D|-2-----------------2-------------------------------------------------------|
A|-0-----------------0-------------------------------------------------------|
E|---------------------------------------------------------------------------|

e|---------------------------------------------------------------------------|
B|---------------------------------------------------------------------------|
G|----------------5-5-5-5-5-5-5-5--------------------------------------------|
D|----------------3-3-3-3-3-3-3-3--------------------------------------------|
A|2-2-2-2-2-2-2-2-----------------5-5-5-5-5-5-5-5-4-4-4-4-4-4-4-4------------|
E|0-0-0-0-0-0-0-0-----------------3-3-3-3-3-3-3-3-2-2-2-2-2-2-2-2------------|

e|---------------------------------------------------------------------------|
B|---------------------------------------------------------------------------|
G|----------------4-4-4-4-4-4-4-4--------------------------------------------|
D|----------------2-2-2-2-2-2-2-2-----4---4-4---4-----4---4-4----------------|
A|2-2-2-2-2-2-2-2-----------------5-5-5-5-5-5-5-5-5-5-5-5-5-5-5-5------------|
E|0-0-0-0-0-0-0-0-----------------3-3-3-3-3-3-3-3-3-3-3-3-3-3-5-3------------|

Guitar Two
e|-3---3---5---3---7---3---3---5---2---2---3---2---0-0-0-0-2-2-2-2-----------|
B|---5---5---5---5---5---5---5---5---5---5---5---5-5-5-5-5-3-3-3-3-----------|
G|---------------------------------------------------------------------------|
D|---------------------------------------------------------------------------|
A|---------------------------------------------------------------------------|
E|---------------------------------------------------------------------------|

e|-3-3-3-3-3-3-3-3-5-5-5-5-5-5-5-5-2-2-2-2-2-2-2-2-2-2-2-2-2-2-2-2-----------|
B|-5-5-5-5-5-5-5-5-5-5-5-5-5-5-5-5-3-3-3-3-3-3-3-3-3-3-3-3-3-3-3-3-----------|
G|---------------------------------------------------------------------------|
D|---------------------------------------------------------------------------|
A|---------------------------------------------------------------------------|
E|---------------------------------------------------------------------------|


Chorus
e|------------------------------------------------------------------------------|
B|------------------------------------------------------------------------------|
G|--------------------------------------------------------------7-7-7-7-7-7-7-7-|
D|-7-7--------------------1010------------------5-5-5-5-5-5-5-5-7-7-7-7-7-7-7-7-|
A|-7-7--------------------1010------------------5-5-5-5-5-5-5-5-5-5-5-5-5-5-5-5-|
E|-5-5-(5)(5)(5)(5)(5)(5)-8-8-(8)(8)(8)(8)(8)(8)3-3-3-3-3-3-3-3-----------------|

e|-----------------------------------------------------------------------------|
B|-----------------------------------------------------------------------------|
G|-----------------------------------------------------------------------------|
D|-7-7--------------------1010------------------5-5-5-5-5-5-5-5-4-4-4-4-4-4-4-4|
A|-7-7--------------------1010------------------5-5-5-5-5-5-5-5-5-5-5-5-5-5-5-5|
E|-5-5-(5)(5)(5)(5)(5)(5)-8-8-(8)(8)(8)(8)(8)(8)3-3-3-3-3-3-3-3-2-2-2-2-2-2-2-2|


e|---------------------------------------------------------------------------|
B|---------------------------------------------------------------------------|
G|-----------5-------------7-------------------------------------------------|
D|-7---------5-X8---5------7--X8---------------------------------------------|
A|-7--X8-----3------5-X8---5-------------------------------------------------|
E|-5----------------3--------------------------------------------------------|

e|-----------------------------------------------------------------------------|
B|-----------------------------------------------------------------------------|
G|-----------------------------------------------------------------------------|
D|-7-7--------------------1010------------------5-5-5-5-5-5-5-5-4-4-4-4-4-4-4-4|
A|-7-7--------------------1010------------------5-5-5-5-5-5-5-5-5-5-5-5-5-5-5-5|
E|-5-5-(5)(5)(5)(5)(5)(5)-8-8-(8)(8)(8)(8)(8)(8)3-3-3-3-3-3-3-3-2-2-2-2-2-2-2-2|

Bridge
Guitar One
e|---------------------------------------------------------------------------|
B|---------------------------------------------------------------------------|
G|---------------------------------------------------------------------------|
D|-------------------5-5-5-5-5-5-5-------------------4-4-4-4-4-4-4-----------| X2
A|-2-2-2-4-4-4-5-5-5-3-3-3-3-3-3-3-2-2-2-4-4-4-5-5-5-2-2-2-2-2-2-2-----------|
E|-0-0-0-2-2-2-3-3-3---------------0-0-0-2-2-2-3-3-3-------------------------|

Guitar Two
e|-12b---14b---15b---20b-----------12b---14b---15b---19b---------------------|
B|---------------------------------------------------------------------------|
G|---------------------------------------------------------------------------|
D|---------------------------------------------------------------------------| X2
A|---------------------------------------------------------------------------|
E|---------------------------------------------------------------------------|




Chorus
e|------------------------------------------------------------------------------|
B|------------------------------------------------------------------------------|
G|--------------------------------------------------------------7-7-7-7-7-7-7-7-|
D|-7-7--------------------1010------------------5-5-5-5-5-5-5-5-7-7-7-7-7-7-7-7-|
A|-7-7--------------------1010------------------5-5-5-5-5-5-5-5-5-5-5-5-5-5-5-5-|
E|-5-5-(5)(5)(5)(5)(5)(5)-8-8-(8)(8)(8)(8)(8)(8)3-3-3-3-3-3-3-3-----------------|

e|-----------------------------------------------------------------------------|
B|-----------------------------------------------------------------------------|
G|-----------------------------------------------------------------------------|
D|-7-7--------------------1010------------------5-5-5-5-5-5-5-5-4-4-4-4-4-4-4-4|
A|-7-7--------------------1010------------------5-5-5-5-5-5-5-5-5-5-5-5-5-5-5-5|
E|-5-5-(5)(5)(5)(5)(5)(5)-8-8-(8)(8)(8)(8)(8)(8)3-3-3-3-3-3-3-3-2-2-2-2-2-2-2-2|


e|---------------------------------------------------------------------------|
B|---------------------------------------------------------------------------|
G|-----------5-------------7-------------------------------------------------|
D|-7---------5-X8---5------7--X8---------------------------------------------|
A|-7--X8-----3------5-X8---5-------------------------------------------------|
E|-5----------------3--------------------------------------------------------|

e|-----------------------------------------------------------------------------|
B|-----------------------------------------------------------------------------|
G|-----------------------------------------------------------------------------|
D|-7-7--------------------1010------------------5-5-5-5-5-5-5-5-4-4-4-4-4-4-4-4|
A|-7-7--------------------1010------------------5-5-5-5-5-5-5-5-5-5-5-5-5-5-5-5|
E|-5-5-(5)(5)(5)(5)(5)(5)-8-8-(8)(8)(8)(8)(8)(8)3-3-3-3-3-3-3-3-2-2-2-2-2-2-2-2|


************************************

| /   slide up
| \   slide down
| h   hammer-on
| p   pull-off
| ~   vibrato
| +   harmonic
| x   Mute note
| b   Bend
| pb  Pre-bend
| br  Bend release
| pbr Pre-bend release
| brb Bend release bend

************************************
Suggest correction
Creating personal tab
Creating personal tab
You can edit any tab online and save it as your Personal.

You can edit, replace or remove any tab part or add personal notes – all changes will be seen only by you.

Personal tabs can be accessed anytime from any device, even offline.
Learn more »
Give kudos to tab author, rate the tab!
1 2 3 4 5
comments
print report bad tab
guest
You may want to rate the tab now too:
select rating
Wanna post a correction for this tab? Suggest correction