Oops, an error
Loading. Please wait.

Best tab

version 2
version 2

Interactive

by Cartel
1,309 views 1 this week
1 commentread comment
1 2 3 4 5
x 4
add to favorites
×
Save as Personal and add changes to this tab that will be seen only by you. Learn more ›
×
You can save this tab as Personal to edit and correct it or add notes. All changes will be seen only by you. Learn more »
launch autoscroll
font size
0
reset
how to read this tab
guitar tuner
edit
Autoscroll
slow
fast
+/-
esc
set tempo
stop
Author
Difficulty
OK I KNOW this isn't gonna be 100%, 1, because I only spent about 10 minutes learning it 
ear, and 2 because this is my first whole song tab (WOO!), but hey, nobody else has 
this song, so I guess I'll give you guys a guideline.

-------------------------------------------------------------------------------
                             THE BEST - Cartel
-------------------------------------------------------------------------------
Tabbed by: CBWASSON
Email: calebbwasson@yahoo.com

Tuning:Standard

e|---------------------------------------------------------------------------|
B|--------13---------------13---------------13---------------13--------------|
G|-----13----13---------13----13---------13----13---------13----13-----------|
D|--15----------15---14----------14---13----------13---12----------12--------|
A|---------------------------------------------------------------------------|
E|---------------------------------------------------------------------------|

e|---------------------------------------------------------------------------|
B|--------13-------------13-------------13----------------------------13-----|
G|-----13----13-------13----13-------13----13--------13----13------13----13--|
D|--11----------11-11----------11-11----------11--14----13------15-----------|
A|---------------------------------------------------------------------------|
E|---------------------------------------------------------------------------|

e|---------------------------------------------------------------------------|
B|------------13---------------13---------------13---------------13----------|
G|---------13----13---------13----13---------13----13---------13----13-------|
D|-15---14----------14---13----------13---12----------12---11----------11----|
A|---------------------------------------------------------------------------|
E|---------------------------------------------------------------------------|

e|---------------------------------------------------------------------------|
B|-----13--------------13-----------13-----------------13---------------13---|
G|--13----13--------13----13-----13-----------------13----13---------13------|
D|10---------10---8----------8-8--------8---10---11----------11---10---------|
A|---------------------------------------------------------------------------|
E|---------------------------------------------------------------------------|

e|---------------------------------------------------------------------------|
B|---------------13----------------------------13---------------13-----------|
G|-13---------13----13----------------------13----13---------13----13--------|
D|----10----8-----------8----8-10-8------15----------15---14----------14-----|
A|----------------------------------11---------------------------------------|
E|---------------------------------------------------------------------------|
And then the rest of the song is just the repeat of that and ends with 4th fret on E, 
on A, and 6th on D chord.

| /  slide up
| \  slide down
| h  hammer-on
| p  pull-off
| ~  vibrato
| +  harmonic
| x  Mute note
===============================================================================
Suggest correction
Creating personal tab
Creating personal tab
You can edit any tab online and save it as your Personal.

You can edit, replace or remove any tab part or add personal notes – all changes will be seen only by you.

Personal tabs can be accessed anytime from any device, even offline.
Learn more »
comments
print report bad tab
1 comment total.
0 reply
>>Eric<< 30 Oct 04, 2007 02:54 PM

Hmmmm... not bad. I guess you could play it this way... i like it more this way....

e|-------------------------------------------------------------------
B|--------15---------------14---------------13---------------12------
G|-----14----14---------13----13---------12----12---------11----11---
D|--12----------12---11----------11---10----------10---9-----------9-
A|-------------------------------------------------------------------
E|-------------------------------------------------------------------

anyway... that may not be right but I like the sound more. 3*

guest
You may want to rate the tab now too:
select rating
Wanna post a correction for this tab? Suggest correction