Oops, an error
Loading. Please wait.

Fiend tab

version 2
version 2

Whole song

by Cartel
2,528 views 6 this week
2 commentsread comments
1 2 3 4 5
x 3
add to favorites
×
Save as Personal and add changes to this tab that will be seen only by you. Learn more ›
×
You can save this tab as Personal to edit and correct it or add notes. All changes will be seen only by you. Learn more »
launch autoscroll
font size
0
reset
how to read this tab
guitar tuner
edit
Autoscroll
slow
fast
+/-
esc
set tempo
stop
Author
tuning:
1 whole step down

E-D
B-A
G-F
D-C
A-G
E-D

TUNING LOOKS WEIRD I KNOW BUT IT SOUNDS GREAT!

Intro
e|---0----0----0----0----0---|
B|---0----7----0----7----7---|
G|---8----8----8----8----8--o|
D|---9----9----9----9----9--o|
A|---9----9----9----9----0---|
E|---7----0----7----0----0---|

Chorus
e|---0-----0-------0----0-------0----0---------0---------0----|
B|---0-----0-------0----0-------0----0---------0---------0----|
G|---6-----1-------8----3-------6----1---------6---------3----|
D|---7-----2-------9----4-------7----2---------7---------4----|
A|---7-----2-------9----4-------7----2---------7---------4----|
E|---5-----0-------7----2-------5----0---------5---------2----|
    "Why  Didnt you come Back..  give.. whatever  You want"

e|---0----0----0----0----0---|
B|---0----7----0----7----7---|
G|---8----8----8----8----8--o|
D|---9----9----9----9----9--o|
A|---9----9----9----9----0---|
E|---7----0----7----0----0---|


Chorus
e|---0-----0-------0----0-------0----0---------0---------0----|
B|---0-----0-------0----0-------0----0---------0---------0----|
G|---6-----1-------8----3-------6----1---------6---------3----|
D|---7-----2-------9----4-------7----2---------7---------4----|
A|---7-----2-------9----4-------7----2---------7---------4----|
E|---5-----0-------7----2-------5----0---------5---------2----|
  " Why  Didnt you come Back..  give.. whatever  You want"


ALL DOWN STROKES 1X
e|---0-----0-------0----0-------0----0---------0---------0----|
B|---0-----0-------0----0-------0----0---------0---------0----|
G|---6-----1-------8----3-------6----1---------6---------3----|
D|---7-----2-------9----4-------7----2---------7---------4----|
A|---7-----2-------9----4-------7----2---------7---------4----|
E|---5-----0-------7----2-------5----0---------5---------2----|
"but this is just like everythin i told you he would say..."


e|--------------------------------|
B|--------------------------------|
G|--------------------------------|
D|--------------------------------|
A|---7-7--------------------------|
E|--5-5---------------------------|


e|-----5-------0---------7------2-------5------0------5------2----|
B|-----5-------0---------7------2-------5------0------5------2----|
G|-----6-------1---------8------3-------6------1------6------3----|
D|-----7-------2---------9------4-------7------2------7------4----|
A|--7--7----2--2------9--9---4--4----7--7---2--2---7--7---4--4----|
E|-5-5-5---0-0-0-----7-7-7--2-2-2---5-5-5--0-0-0--5-5-5--2-2-2----|


Chorus
e|---0-----0-------0----0-------0----0---------0---------0----|
B|---0-----0-------0----0-------0----0---------0---------0----|
G|---6-----1-------8----3-------6----1---------6---------3----|
D|---7-----2-------9----4-------7----2---------7---------4----|
A|---7-----2-------9----4-------7----2---------7---------4----|
E|---5-----0-------7----2-------5----0---------5---------2----|
  " Why  Didnt you come Back...give...whatever  You want"
Suggest correction
Creating personal tab
Creating personal tab
You can edit any tab online and save it as your Personal.

You can edit, replace or remove any tab part or add personal notes – all changes will be seen only by you.

Personal tabs can be accessed anytime from any device, even offline.
Learn more »
Give kudos to tab author, rate the tab!
1 2 3 4 5
comments
print report bad tab
2 comments total.
+1 reply
dickaanderson 10 Feb 04, 2008 04:43 PM

This is only a 1/2 step down.
But the rest looks good.

0 reply
mlcohen4 10 Nov 17, 2008 12:42 PM

Something kept bothering me about the last few chords in the chorus, and I found that it's a transition from the open E to the chord on the 7th fret. The rhythm's kind of tricky, but if you listen it's there.

Chorus
e|---0-----0-------0----0-------0----0---0--0--------0----|
B|---0-----0-------0----0-------0----0---0--0--------0----|
G|---6-----1-------8----3-------6----1---6--8--------3----|
D|---7-----2-------9----4-------7----2---7--9--------4----|
A|---7-----2-------9----4-------7----2---7--9--------4----|
E|---5-----0-------7----2-------5----0---5--7--------2----|
"Why Didnt you come Back.. give.. whatever You want"

And if you're going off the The Reason EP version of this song, it's definitely down a full step.

guest
You may want to rate the tab now too:
select rating
Wanna post a correction for this tab? Suggest correction