Oops, an error
Loading. Please wait.

La Pelotona Tab

version 1
version 1

Whole song

Interactive

1,174 views 1 this week
no commentswrite comment
1 2 3 4 5
please rate
add to favorites
launch autoscroll
font size
0
reset
how to read this tab
guitar tuner
Tab Pro tools
  • play this tab
  • loop segment
  • change instrument
  • show fretboard
  • metronome
×
Best way to learn
"La Pelotona"
Autoscroll
slow
fast
+/-
esc
set tempo
stop
Contributor
Difficulty
intermediate
-------------------------------------------------------------------------------
                             La Pelotona – Cartel de Santa
-------------------------------------------------------------------------------
Tabbed by: Pako Arroyo
Tuning: EADGBe

e|------------------------------------------------------------------------------|  (X2)
B|--------------0------------------------0------------ 1--0---------------------|
G|-----------4----------------0------2------------2-----------------------------|
D|-----4/5--------5------2----2/4-----------1----------------- -----------------|
A|----------------------3--------------------2----------------------------------|
E|------------------------------------------------------------------------------|

e|----------------0-------------------------------------------------------------|  (X7)
B|-------------------0-------------------------0-------------- 1--0-------------|
G|-----------4--------------------0-------2--------------2----------------------|
D|-----4/5------------------2------2/4-------------1----------------------------|
A|-----------------------3------------------------2-----------------------------|
E|------------------------------------------------------------------------------|

e|----------------0-------------------------------------------------------------|  (X2)
B|-------------------0-------------------------0-------------- 1h3--0-----------|
G|-----------4--------------------0-------2--------------2----------------------|
D|-----4/5------------------2------2/4-------------1----------------------------|
A|-----------------------3------------------------2-----------------------------|
E|------------------------------------------------------------------------------|

e|----------------0-------------------------------------------------------------|  (X1)
B|-------------------0-------------------------0-------------- 1--0-------------|
G|-----------4--------------------0-------2--------------2----------------------|
D|-----4/5------------------2------2/4-------------1----------------------------|
A|-----------------------3------------------------2-----------------------------|
E|------------------------------------------------------------------------------|

e|-------7-----7--------------------------------------------------------------| (X2)
B|-------5-----5-------------------0------------------------------------------|
G|-------5-----5------------5---5-----5---------------------------------------|
D|-------5-----5--------------7---7-------------------------------------------|
A|-------7-----7---------6----------------------------------------------------|
E|---5------------------7-----------------------------------------------------|

e|-------0----0---0---------------------------------------------------------| (X4)
B|-------0----0---0----------------0----------------------------------------|
G|-------0----0---0-------------5----5--------------------------------------|
D|-------5----5---5----------7----------7-----------------------------------|
A|----7----7----7---7-----6-------------------------------------------------|
E|--0---------------------7-------------------------------------------------|

e|----------------0-------------------------------------------------------------|  (X5)
B|-------------------0-------------------------0-------------- 1--0-------------|
G|-----------4--------------------0-------2--------------2----------------------|
D|-----4/5------------------2------2/4-------------1----------------------------|
A|-----------------------3------------------------2-----------------------------|
E|------------------------------------------------------------------------------|

e|----------------0-------------------------------------------------------------|  (X2)
B|-------------------0-------------------------0-------------- 1h3--0-----------|
G|-----------4--------------------0-------2--------------2----------------------|
D|-----4/5------------------2------2/4-------------1----------------------------|
A|-----------------------3------------------------2-----------------------------|
E|------------------------------------------------------------------------------|
e|----------------0-------------------------------------------------------------|  (X1)
B|-------------------0-------------------------0-------------- 1--0-------------|
G|-----------4--------------------0-------2--------------2----------------------|
D|-----4/5------------------2------2/4-------------1----------------------------|
A|-----------------------3------------------------2-----------------------------|
E|------------------------------------------------------------------------------|

e|-------7-----7--------------------------------------------------------------| (X2)
B|-------5-----5-------------------0------------------------------------------|
G|-------5-----5------------5---5-----5---------------------------------------|
D|-------5-----5--------------7---7-------------------------------------------|
A|-------7-----7---------6----------------------------------------------------|
E|---5------------------7-----------------------------------------------------|

e|-------0----0---0---------------------------------------------------------| (X5)
B|-------0----0---0----------------0----------------------------------------|
G|-------0----0---0-------------5----5--------------------------------------|
D|-------5----5---5----------7----------7-----------------------------------|
A|----7----7----7---7-----6-------------------------------------------------|
E|--0---------------------7-------------------------------------------------|

e|-------0----0---0---------------------------------------------------------| (X1)
B|-------0----0---0----------------0----------------------------------------|
G|-------0----0---0-------------5----5--7-----------------------------------|
D|-------5----5---5----------7----------------------------------------------|
A|----7----7----7---7-----6-------------------------------------------------|
E|--0---------------------7-------------------------------------------------|

e|-------7-----7--------------------------------------------------------------| (X1)
B|-------5-----5-------------------0------------------------------------------|
G|-------5-----5------------5---5-----5---------------------------------------|
D|-------5-----5--------------7---7-------------------------------------------|
A|-------7-----7---------6----------------------------------------------------|
E|---5------------------7-----------------------------------------------------|

e|-------5-----5--------------------------------------------------------------| (X1)
B|-------7-----7-------------------0------------------------------------------|
G|-------5-----5------------5---5-----5---------------------------------------|
D|-------5-----5--------------7---7-------------------------------------------|
A|-------7-----7---------6----------------------------------------------------|
E|---5------------------7-----------------------------------------------------|

e|-------7-----7--------------------------------------------------------------| (X1)
B|-------5-----5-------------------0------------------------------------------|
G|-------5-----5------------5---5-----5---------------------------------------|
D|-------5-----5--------------7---7-------------------------------------------|
A|-------7-----7---------6----------------------------------------------------|
E|---5------------------7-----------------------------------------------------|

e|---------2--0--2----2--0----------------------------------------------------| (X1)
B|------4-----------4---------------------------------------------------------|
G|---4------------------------------------------------------------------------|
D|----------------------------------------------------------------------------|
A|----------------------------------------------------------------------------|
E|----------------------------------------------------------------------------|
************************************

| /   slide up
| \   slide down
| h   hammer-on
| p   pull-off
| ~   vibrato
| +   harmonic
| x   Mute note
| b   Bend
| pb  Pre-bend
| br  Bend release
| pbr Pre-bend release
| brb Bend release bend

************************************
comments
We did not receive enough feedback on this tab! Please rate:
print report bad tab
1 2 3 4 5
I want to post or [tab]
guest
You may want to rate the tab now too:
select rating
Please do not post tabs as comments. Select "correction" instead!