Oops, an error
Loading. Please wait.

Bellas Lullaby Tab

version 1
version 1

Whole song

Interactive

186,187 views 312 this week
5 commentsread comments
1 2 3 4 5
x 32
add to favorites
launch autoscroll
font size
0
reset
how to read this tab
guitar tuner
×
Best way to learn
"Bellas Lullaby"
Autoscroll
slow
fast
+/-
esc
set tempo
stop
Tuning
E A D G B E
I LOVE Twilight, so I had to put these tabs on here.


                 -Sonia aka TwilightGurl

e|---6-5-3-0---3----------------------------------6-5-3-0---3-------------------2-3-----------3-5---|
B|-----------3---0----------0-1---------------------------3---0----------0-1-----------4-5----------|
G|-----------------2-------------------0-2----------------------2-----------------------------------|
D|--------------------------------------------------------------------------------------------------|
A|--------------------------------------------------------------------------------------------------|
E|--------------------------------------------------------------------------------------------------|


e|-3-5-7---14--7---3-2-0---14--7---2-3-7---14-12-10--8-7-5---3-2-----------6-5-3-0---3--------------|
B|---------------------------------------------------------------3----0------------3---0------------|
G|---------------------------------------------------------------------------------------2----------|
D|--------------------------------------------------------------------------------------------------|
A|--------------------------------------------------------------------------------------------------|
E|--------------------------------------------------------------------------------------------------|


e|---------------5-7-------3-5-7-----------------------------------------------------------0-0-|
B|-----------7-7-----------------3-3-1-1-0-0-----------0-0-3-3---3-3-1-1-0-0-----------0-0-----|
G|-------5-5---------------------------------2-----0-0-----------------------2-----0-0---------|
D|---4-4---------------------------------------2-2-----------------------------2-2-------------|
A|---------------------------------------------------------------------------------------------|
E|---------------------------------------------------------------------------------------------|


e|-2-----------------------0-0-5-5-7-----------------------0-0-5-5---|
B|---3-3-1-1-0-0-------1-1-----------3-3-1-1-0-0-------1-1-----------|
G|---------------2-0-0---------------------------2-0-0---------------|
D|-------------------------------------------------------------------|
A|-------------------------------------------------------------------|
E|-------------------------------------------------------------------|


e|-5-5-3-0-0--------------0-0-3-3-7-7-10-10--------5-5-3-0-0--------------3-5-7-|
B|-----------3-0---------------------------------------------3-0----------------|
G|---------------2-----------------------------------------------2--------------|
D|------------------------------------------------------------------------------|
A|------------------------------------------------------------------------------|
E|------------------------------------------------------------------------------|


e|-------------------------------2-----------------------0-0-5-5-7-|
B|-3-3-1-1-0-0-----------0-0-3-3---3-3-1-1-0-0-------1-1-----------|
G|-------------2-----0-0-----------------------2-0-0---------------|
D|-----------------2-----------------------------------------------|
A|-----------------------------------------------------------------|
E|-----------------------------------------------------------------|


e|-----------------------0-0-5-5-7--------------------------------------------|
B|-3-3-1-1-0-0-------1-1------------------------------------------------------|
G|-------------2-0-0----------------------------------------------------------|
D|----------------------------------------------------------------------------|
A|----------------------------------------------------------------------------|
E|----------------------------------------------------------------------------|
Suggest correction
comments
print report bad tab
5 comments total. Showing first comments.
0 reply
Emma.B 10 Jul 05, 2013 01:23 PM

This is quite good! :) Thanks !

0 reply
giratina97 10 Jan 08, 2014 02:13 AM

u should add the bass notes

0 reply
Kritanta 11 Dec 28, 2014 01:48 AM

This is great. I can't play bass notes thank you so much.

guest
You may want to rate the tab now too:
select rating
Wanna post a correction for this tab? Suggest correction