Oops, an error
Loading. Please wait.

The Lion Fell In Love With The Lamb tab

version 1
version 1

Whole song

Interactive

6,550 views 9 this week
2 commentsread comments
1 2 3 4 5
3 more votes to show rating
add to favorites
×
Save as Personal and add changes to this tab that will be seen only by you. Learn more ›
×
You can save this tab as Personal to edit and correct it or add notes. All changes will be seen only by you. Learn more »
launch autoscroll
font size
0
reset
how to read this tab
guitar tuner
edit
Autoscroll
slow
fast
+/-
esc
set tempo
stop
Carter Burwell - The lion fell in love with the lamb 
Tuning: standard

This is the guitar bit when they’re lying in the meadow and the guitar kicks in :)
Enjoy.  


First guitar:
--------------------------------------------------------------------------------|
-------------------------------0-3----------------------------------------------|
-----2---2---2---2----1---1---1---1---------------------------------------------|
----2---2---2---2----2---2---------2--------------------------------------------|
---0---0---0---0----2---2---2---------------------------------------------------|
--------------------------------------------------------------------------------|
That goes throughout the whole song…



Second guitar: 
---12-11-------12-11--------------------------|
--------------------------10-12---------------|
----------------------------------------------|
----------------------------------------------|
----------------------------------------------|
----------------------------------------------|
The second guitar only comes in at certain bits



End:
--------------------------------------------------------------------------------|
-------------------------------0-3----------------------------------------------|
-----2---2---2---2----1---1---1---1------2---2---2---2---4---4---4---4----------|
----2---2---2---2----2---2---------2----3---3---3---3---5---5---5---5-----------|
---0---0---0---0----2---2---2----------3---3---3---3---5---5---5---5------------|
--------------------------------------------------------------------------------|

            
            
Suggest correction
Creating personal tab
Creating personal tab
You can edit any tab online and save it as your Personal.

You can edit, replace or remove any tab part or add personal notes – all changes will be seen only by you.

Personal tabs can be accessed anytime from any device, even offline.
Learn more »
Give kudos to tab author, rate the tab!
1 2 3 4 5
comments
print report bad tab
2 comments total.
0 reply
Indie Purist 949 Nov 15, 2009 10:16 PM

Good tab, wrong song name!

0 reply
-musical riot!- 71 Dec 03, 2009 11:22 PM

thanks (: sorry about the song name mistake but i cant change it cause i submitted this tab but its not on my profile :S

guest
Wanna post a correction for this tab? Suggest correction