Oops, an error
Loading. Please wait.

For The Birds tab

by Carvel
100 views 1 this week
no commentswrite comment
1 2 3 4 5
2 more votes to show rating
add to favorites
×
Save as Personal and add changes to this tab that will be seen only by you. Learn more ›
×
You can save this tab as Personal to edit and correct it or add notes. All changes will be seen only by you. Learn more »
launch autoscroll
font size
0
reset
how to read this tab
guitar tuner
edit
Autoscroll
slow
fast
+/-
esc
set tempo
stop
About this tab version
Chords for the song "For the Birds" by Carvel the band - youtube channel https://www.youtube.com/channel/UCo7-v7hF7OuZZNuakL7eo6w. Was this info helpful? Yes No
CHORDS UNDER TAB


[Intro Riff]

e|-------------------------------------------------|
B|------7---------10------12-----5--------5-----5--|
G|-------------------------------------------------| 
D|--7/9------9/11----9/11----4/6------4/6---6/7----| x2
A|-------------------------------------------------|
E|-------------------------------------------------|

e|---------|
B|------7--|
G|---------|
D|--7/9----|
A|---------|
E|---------|


[Verse]

    F#m    C#m    C#m/A  
e|---2------4---------|
B|---2------5---------|
G|---2------6------6--|
D|---4------6------6--|
A|---4------4------4--|
E|---2-------------5--|
 
    Eadd9  F#m    C#m    C#m/A   
e|---------2------4----------|
B|--7------2------5----------|
G|--4------2------6------6---|
D|--6------4------6------6---| x3
A|--7------4------4------4---|
E|---------2-------------5---|

>The C#m/A chord is played just before the Eadd9, and is played quickly (listen for the bass)

    F#m    C#m    C#m/A  
e|---2------4---------|
B|---2------5---------|
G|---2------6------6--|
D|---4------6------6--|
A|---4------4------4--|
E|---2-------------5--|

 
[Chorus]
 
    B     F#m    C#m    
e|--2------2------4--|
B|--4------2------5--|
G|--4------2------6--|
D|--4------4------6--| x4
A|--2------4------4--|
E|---------2---------|

    B         
e|--2--|
B|--4--|
G|--4--|
D|--4--|
A|--2--|
E|-----|

Hold the B for twice as long as the F#m or C#m


[Intro Riff]

e|-------------------------------------------------|
B|------7---------10------12-----5--------5-----5--|
G|-------------------------------------------------| 
D|--7/9------9/11----9/11----4/6------4/6---6/7----| x2
A|-------------------------------------------------|
E|-------------------------------------------------|

e|---------|
B|------7--|
G|---------|
D|--7/9----|
A|---------|
E|---------|


[Verse 2]

    F#m    C#m    C#m/A  
e|---2------4---------|
B|---2------5---------|
G|---2------6------6--|
D|---4------6------6--|
A|---4------4------4--|
E|---2-------------5--|
 
    Eadd9  F#m    C#m    C#m/A   
e|---------2------4----------|
B|--7------2------5----------|
G|--4------2------6------6---|
D|--6------4------6------6---| x3
A|--7------4------4------4---|
E|---------2-------------5---|

    F#m    C#m    C#m/A  
e|---2------4---------|
B|---2------5---------|
G|---2------6------6--|
D|---4------6------6--|
A|---4------4------4--|
E|---2-------------5--|

 
[Chorus]
 
    B     F#m    C#m    
e|--2------2------4--|
B|--4------2------5--|
G|--4------2------6--|
D|--4------4------6--| x4
A|--2------4------4--|
E|---------2---------|

    B       
e|--2--|
B|--4--|
G|--4--|
D|--4--|
A|--2--|
E|-----|


[Solo 1]

e|------------------------------|------------------------------|
B|------------------------------|------------------------------|
G|----9-11-9-11-11/13-11-9-11-9-|-----9-11-9-11-11/13-11-9-8-9-|
D|--9---------------------------|---9--------------------------|
A|------------------------------|------------------------------|
E|------------------------------|------------------------------|

e|--------7-----7-----9-----9-----9-----9-----7-----7-----7----7-----|
B|------7-----7-----7---7-----7-----7-----7-----7-----9-----10---10--|
G|----9-----9-----9-------9-----9-----9-----9-----9-----9------------|
D|-------------------------------------------------------------------|
A|-------------------------------------------------------------------|
E|-------------------------------------------------------------------|

e|--------7-----7-----9-----9-----9-----7-----7-----7-----7----7-----|
B|------7-----7-----7---7-----7-----7-----7-----7-----9-----10---10--|
G|----9-----9-----9-------9-----9-----9-----9-----9-----9------------|
D|-------------------------------------------------------------------|
A|-------------------------------------------------------------------|
E|-------------------------------------------------------------------|

[Bridge/Small Verse]

No chords (or quiet verse chords)

[Chorus]
 
    B     F#m    C#m    
e|--2------2------4--|
B|--4------2------5--|
G|--4------2------6--|
D|--4------4------6--| x4
A|--2------4------4--|
E|---------2---------|

    B       
e|--2--|
B|--4--|
G|--4--|
D|--4--|
A|--2--|
E|-----|


[Solo 2]

e|--------------------------------7--7--|------------------------------------|
B|------------------------------7---7-7-|------------------------------10--9-|
G|----9-11-9-11-11/13-11-9-11-9---------|-----9-11-9-11-11/13-11-9-8-9-------|
D|--9-----------------------------------|---9--------------------------------|
A|--------------------------------------|------------------------------------|
E|--------------------------------------|------------------------------------|

e|-----------------------------------------------------------------------|
B|------------------------------12b14-14br12-10-9-10-9-------------------|
G|----9-11-9-11-11/13-11-9-11-9------------------------11----9--8--9-----|
D|--9-----------------------------------------------------------------9--|
A|-----------------------------------------------------------------------|
E|-----------------------------------------------------------------------|


################## CHORDS ##########################

Intro: 
Eadd9 F#m C#m C#m/A (x2)


[Verse]
Eadd9  F#m                     
       Bring me the sun again
C#m                 C#m/A
    I'm waiting to let go
Eadd9  F#m
       Aligning my fate again
C#m                     C#m/A
    Cause that's all I know
Eadd9     F#m      C#m            C#m/A
        I feel too caught to be untangled
Eadd9           F#m                Cm        C#m/A
        Oh it's making me age again, always I know

[Chorus]
  B
  Oooooooooh
  B
  Well I still might      (x4)
  F#m     C#m
  Ooooooh Ahhhhhhh
  B

[Intro Riff] 
Eadd9 F#m C#m C#m/A (x2)

[Verse 2]
Eadd9  F#m    
        Show me your face again
C#m               C#m/A
    I'm trying to hold on
Eadd9        F#m                   C#m       C#m/A
        I'll give it a day before I lose all hope
Eadd9     F#m      C#m            C#m/A
        I feel too caught to be untangled
Eadd9     F#m      Cm            C#m/A
        I feel too cold to be on my own

[Chorus]
  B
  Oooooooooh
  B
  Well I still might      (x4)
  F#m     C#m
  Ooooooh Ahhhhhhh

  B

[Solo 1]
F#m C#m C#m/A C#m/A (x2)
Eadd9 F#m C#m C#m/A (x2)

[Bridge/Small Verse]
Eadd9     F#m      C#m            (C#m/A)
        I feel too caught to be untangled

[Chorus]
  B
  Oooooooooh
  B
  Well I still might      (x4)
  F#m     C#m
  Ooooooh Ahhhhhhh
  B

[Solo 2]
F#m C#m C#m/A C#m/A (x4)
(Single strum on last time through)

            
            
Suggest correction
Creating personal tab
Creating personal tab
You can edit any tab online and save it as your Personal.

You can edit, replace or remove any tab part or add personal notes – all changes will be seen only by you.

Personal tabs can be accessed anytime from any device, even offline.
Learn more »
Give kudos to tab author, rate the tab!
1 2 3 4 5
comments
print report bad tab
guest
You may want to rate the tab now too:
select rating
Wanna post a correction for this tab? Suggest correction