Oops, an error
Loading. Please wait.

Origins tab

by Carvel
91 views 1 this week
no commentswrite comment
1 2 3 4 5
1 last vote to show rating
add to favorites
×
Save as Personal and add changes to this tab that will be seen only by you. Learn more ›
×
You can save this tab as Personal to edit and correct it or add notes. All changes will be seen only by you. Learn more »
launch autoscroll
font size
0
reset
how to read this tab
guitar tuner
edit
Autoscroll
slow
fast
+/-
esc
set tempo
stop
Author
Fantastic song by a little known band. Tabbed by ear based on this live performance:
https://www.youtube.com/watch?v=L1gAJvqDDRs which is very close to the original recording

Chords used:

Fmaj/C: x33211
Dm:     xx0231
Am:     x02210
Gadd9:  320013
G:      320001
C:      x32010
Em:     022000

[Intro]

   Fmaj/C           Dm                Am                Gadd9      
e|-10-12-10----12-|--10-12-10----12-|--10-12-10----12-|------------12----12-12---12-|
B|----------13----|13---------13----|13---------13----|13-13/12-12----12-------12---|
G|----------------|-----------------|-----------------|-----------------------------|
D|----------------|-----------------|-----------------|-----------------------------|
A|----------------|-----------------|-----------------|-----------------------------|
E|----------------|-----------------|-----------------|-----------------------------|

   Fmaj/C           Dm                Am                Gadd9      
e|-10-12-10----12-|--10-12-10----12-|--10-12-10----12-|-----------------------------|
B|----------13----|13---------13----|13---------13----|13-13/12~--------------------|
G|----------------|-----------------|-----------------|-----------------------------|
D|----------------|-----------------|-----------------|-----------------------------|
A|----------------|-----------------|-----------------|-----------------------------|
E|----------------|-----------------|-----------------|-----------------------------|

Fmaj/C           Dm                Am                Gadd9 x2

   Fmaj/C           Dm                Am                Gadd9      
e|-10-12-10----12-|--10-12-10----12-|--10-12-10----12-|------------12----12-12---12-|
B|----------13----|13---------13----|13---------13----|13-13/12-12----12-------12---|
G|----------------|-----------------|-----------------|-----------------------------|
D|----------------|-----------------|-----------------|-----------------------------|
A|----------------|-----------------|-----------------|-----------------------------|
E|----------------|-----------------|-----------------|-----------------------------|

   Fmaj/C           Dm                Am                Gadd9      
e|-10-12-10----12-|--10-12-10----12-|--10-12-10----12-|------------12---------------|
B|----------13----|13---------13----|13---------13----|13-13/12-12--------12-13-12--|
G|----------------|-----------------|-----------------|-----------------------------|
D|----------------|-----------------|-----------------|-----------------------------|
A|----------------|-----------------|-----------------|-----------------------------|
E|----------------|-----------------|-----------------|-----------------------------|


[Verse 1]

   Fmaj/C           Dm                Am                Gadd9 
e|----------------|-----------------|-----------------|-----------------|
B|----------------|-----------------|-----------------|-----------------|
G|-14-------------|-----------------|-----------------|-----------------|
D|----------------|-----------------|-----------------|-----------------|
A|----------------|-----------------|-----------------|-----------------|
E|----------------|-----------------|-----------------|-----------------|

   Fmaj/C           Dm                Am                Gadd9 
e|----------------|-----------------|-----------------|---12----12-12-x-|
B|----------------|-----------------|-----------------|---12h13-12-12-x-|
G|-14-------------|-----------------|-----------------|-----------------|
D|----------------|-----------------|-----------------|-----------------|
A|----------------|-----------------|-----------------|-----------------|
E|----------------|-----------------|-----------------|-----------------|

   Fmaj/C           Dm                Am                Gadd9 
e|----------------|-----------------|-----------------|---12----12-12-x-|
B|----------------|-----------------|-----------------|---12h13-12-12-x-|
G|-14-------------|-----------------|--------14---14--|-----------------|
D|----------------|-----------------|-----------------|-----------------|
A|----------------|-----------------|-----------------|-----------------|
E|----------------|-----------------|-----------------|-----------------|

   Fmaj/C           Dm                Am                Gadd9 
e|----------------|-----------------|-----------------|-----------------|
B|----------------|-----------------|-----------------|-----------------|
G|-14-------------|-----------------|--14----14-14-14-|-14-14-14-141414-|
D|----------------|-----------------|-----------------|-----------------|
A|----------------|-----------------|-----------------|-----------------|
E|----------------|-----------------|-----------------|-----------------|


[Chorus]

   Fmaj/C                             C                 Gadd9    G
e|----------------|-----------------|-7--8--7---------|-5--7--5---------|
B|-8--8-----------|-8-------8-------|----------8------|----------5--8---|
G|-5--------5-----|-----7-------7---|-------------9---|-----------------|
D|-7-----7-----7--|-------5-------5-|-----------------|-----------------| x4
A|----------------|-----------------|-----------------|-----------------|
E|----------------|-----------------|-----------------|-----------------|


[Verse 2]

   Fmaj/C           Dm                Am                Gadd9      
e|-10-12-10----12-|--10-12-10----12-|--10-12-10----12-|------------12----12-12---12-|
B|----------13----|13---------13----|13---------13----|13-13/12-12----12-------12---|
G|----------------|-----------------|-----------------|-----------------------------|
D|----------------|-----------------|-----------------|-----------------------------|
A|----------------|-----------------|-----------------|-----------------------------|
E|----------------|-----------------|-----------------|-----------------------------|

   Fmaj/C           Dm                Am                Gadd9      
e|-10-12-10----12-|--10-12-10----12-|--10-12-10----12-|------------12-12----12-12-x-|
B|----------13----|13---------13----|13---------13----|13-13/12-12----12h13-12-12-x-|
G|----------------|-----------------|-----------------|-----------------------------|
D|----------------|-----------------|-----------------|-----------------------------|
A|----------------|-----------------|-----------------|-----------------------------|
E|----------------|-----------------|-----------------|-----------------------------|

   Fmaj/C           Dm                Am                Gadd9 
e|----------------|-----------------|-----------------|---12----12-12-x-|
B|----------------|-----------------|-----------------|---12h13-12-12-x-|
G|-14-------------|-----------------|--------14---14--|-----------------|
D|----------------|-----------------|-----------------|-----------------|
A|----------------|-----------------|-----------------|-----------------|
E|----------------|-----------------|-----------------|-----------------|

   Fmaj/C           Dm                Am                Gadd9 
e|----------------|-----------------|-----------------|---12----12-12-x-|
B|----------------|-----------------|-----------------|---12h13-12-12-x-|
G|-14-------------|-----------------|--------14---14--|-----------------|
D|----------------|-----------------|-----------------|-----------------|
A|----------------|-----------------|-----------------|-----------------|
E|----------------|-----------------|-----------------|-----------------|

   Fmaj/C           Dm                Am                Gadd9 
e|----------------|-15-15--15-15-15-|--12----12---12--|---12----12-12-x-|
B|----------------|-----------------|-----------------|---12h13-12-12-x-|
G|-14-------------|-14-14--14-14-14-|--14----14---14--|-----------------|
D|----------------|-----------------|-----------------|-----------------|
A|----------------|-----------------|-----------------|-----------------|
E|----------------|-----------------|-----------------|-----------------|

   Fmaj/C           Dm                Am                Gadd9 
e|----------------|-15-15--15-x--12-|--12----12-12-12-|-12-12-12-121212-|
B|----------------|-----------------|-----------------|-----------------|
G|-14----14---14--|-14-14--14-x--14-|--14----14-14-14-|-14-14-14-141414-|
D|----------------|-----------------|-----------------|-----------------|
A|----------------|-----------------|-----------------|-----------------|
E|----------------|-----------------|-----------------|-----------------|


[Chorus]

   Fmaj/C                             C                 Gadd9    G
e|----------------|-----------------|-7--8--7---------|-5--7--5---------|
B|-8--8-----------|-8-------8-------|----------8------|----------5--8---|
G|-5--------5-----|-----7-------7---|-------------9---|-----------------|
D|-7-----7-----7--|-------5-------5-|-----------------|-----------------| x4
A|----------------|-----------------|-----------------|-----------------|
E|----------------|-----------------|-----------------|-----------------|


[Bridge]

   Dm                                 Am                Em
e|-5--------------|-----------------|-5---------------|-5---------------|
B|-6--------------|-----------------|-5---------------|-----------------|
G|-7--------------|-----------------|-5---------------|-4---------------|
D|----------------|-----------------|-----------------|-----------------|
A|----------------|-----------------|-----------------|-----------------|
E|----------------|-----------------|-----------------|-----------------|

   Dm                                 Am                Em
e|-5--------------|-----------------|-7---------------|-----------------|
B|-6--------------|-----------------|-5---------------|-----------------|
G|-7--------------|-----------------|-5---------------|-----------------|
D|----------------|-----------------|-----------------|-----------------|
A|----------------|-----------------|-----------------|-----------------|
E|----------------|-----------------|-----------------|-----------------|


[Solo 1]

   Fmaj/C           Dm                Am                G
e|---------------|----------------|----------------|----------------|
B|---------------|----------------|----------------|----------------|
G|-5-------------|--------7--5--4-|-5--------------|--------4--5--4-|
D|---------------|----------------|----------------|----------------|
A|---------------|----------------|----------------|----------------|
E|---------------|----------------|----------------|----------------|

   Fmaj/C           Dm                Am                G
e|---------------|----------------|----------------|----------------|
B|---------------|-----------6--5-|-6--5-----------|----------------|
G|---------------|----------------|-------7--5--7--|-4--------------|
D|-7-------------|----------------|----------------|----------------|
A|---------------|----------------|----------------|----------------|
E|---------------|----------------|----------------|----------------|


[Chorus]

   Fmaj/C                             C                 Gadd9    G
e|----------------|-----------------|-7--8--7---------|-5--7--5---------|
B|-8--8-----------|-8-------8-------|----------8------|----------5--8---|
G|-5--------5-----|-----7-------7---|-------------9---|-----------------|
D|-7-----7-----7--|-------5-------5-|-----------------|-----------------| x4
A|----------------|-----------------|-----------------|-----------------|
E|----------------|-----------------|-----------------|-----------------|


[Bridge]

   Dm                                 Am                Em
e|-5-----5-5-5-5--|--7---8---7---5--|-5------7-5-7-5--|-5------5-5-5-5--|
B|-6-----6-6-6-6--|--6---6---6---6--|-5------5-5-5-5--|-----------------|
G|-7-----7-7-7-7--|--7---7---7---7--|-5------5-5-5-5--|-4------4-4-4-4--|
D|----------------|-----------------|-----------------|-----------------| x4
A|----------------|-----------------|-----------------|-----------------|
E|----------------|-----------------|-----------------|-----------------|


[Solo 2]

   Am                         Fmaj/C
e|-12----12-x-x-12----12-12-|--------------15-15----15-15-15|
B|-12h13-13-x-x-12h13-12-12-|-------------------------------|
G|--------------------------|-14----14-14--14-14----14-14-14|
D|--------------------------|-------------------------------|
A|--------------------------|-------------------------------|
E|--------------------------|-------------------------------|

   Dm                         Em
e|-12----12-x-x-12----12-12-|--------------17-17---17-17-17-|
B|----------x-x-12h13-12-12-|--------------17-17---17-17-17-|
G|-14----14-----------------|-14----14-14-------------------|
D|--------------------------|-------------------------------|
A|--------------------------|-------------------------------|
E|--------------------------|-------------------------------|

   Am                         Fmaj/C
e|-15----15-x-x-12----12-12-|-------------------------------|
B|-15----15-x-x-12h13-12-12-|-------------------------------|
G|--------------------------|-14----14-14-14-14p12----12-14-|
D|--------------------------|----------------------14-------|
A|--------------------------|-------------------------------|
E|--------------------------|-------------------------------|

   Dm                         Em
e|--------------------------|----------------------------15-15-x-x-15-15-15-|
B|-12h14-----14-12h14-------|-14p12----12-14-14-14p12-----------------------|
G|-------14-----------------|-------14----------------14-14-14-x-x-14-14-14-|
D|--------------------------|-----------------------------------------------|
A|--------------------------|-----------------------------------------------|
E|--------------------------|-----------------------------------------------|

   Am                         Fmaj/C
e|-12----12-x-x-12----12-12-|-------------------------------|
B|-12h13-13-x-x-12h13-12-12-|-------------------------------|
G|--------------------------|-14----14-14-x-x-14-x-x-14-x-x-|
D|--------------------------|-------------------------------|
A|--------------------------|-------------------------------|
E|--------------------------|-------------------------------|

   Dm                         Em
e|-12----12-x-x-12----12-12-|--------------17-17---17-17-17-|
B|-12h13-13-x-x-12h13-12-12-|--------------17-17---17-17-17-|
G|--------------------------|-14----14-14-------------------|
D|--------------------------|-------------------------------|
A|--------------------------|-------------------------------|
E|--------------------------|-------------------------------|

   Am                         Fmaj/C
e|-15----15-x-x-12----12-12-|-------------------------------|
B|-15----15-x-x-12h13-12-12-|-------------------------------|
G|--------------------------|-14----14-14-14-14p12----12-14-|
D|--------------------------|----------------------14-------|
A|--------------------------|-------------------------------|
E|--------------------------|-------------------------------|

   Dm                         Em
e|--------------------------|----------15-15-x-x-15-15-x-x-15-15-15-15-15-15-15-|
B|-12h14-----14-12h14-------|-14p12---------------------------------------------|
G|-------14-----------------|-------14-14-14-x-x-14-15-x-x-14-14-14-14-14-14-14-|
D|--------------------------|---------------------------------------------------|
A|--------------------------|---------------------------------------------------|
E|--------------------------|---------------------------------------------------|

   Am
e|-12-----------------------|
B|--------------------------|
G|-14-----------------------|
D|--------------------------|
A|--------------------------|
E|--------------------------|



************************************

| x  Dead note
| h  Hammer-on
| p  Pull-off
| /  Slide up
| ~  Vibrato

************************************

            
            
Suggest correction
Creating personal tab
Creating personal tab
You can edit any tab online and save it as your Personal.

You can edit, replace or remove any tab part or add personal notes – all changes will be seen only by you.

Personal tabs can be accessed anytime from any device, even offline.
Learn more »
Give kudos to tab author, rate the tab!
1 2 3 4 5
comments
print report bad tab
guest
You may want to rate the tab now too:
select rating
Wanna post a correction for this tab? Suggest correction