Oops, an error
Loading. Please wait.

Everytime We Touch solo tab

version 1
version 1

Solo

Interactive

by Cascada
48,145 views 45 this week
2 commentsread comments
1 2 3 4 5
x 23
add to favorites
×
Save as Personal and add changes to this tab that will be seen only by you. Learn more ›
×
You can save this tab as Personal to edit and correct it or add notes. All changes will be seen only by you. Learn more »
launch autoscroll
font size
0
reset
how to read this tab
guitar tuner
edit
Autoscroll
slow
fast
+/-
esc
set tempo
stop
Author
   This one I took out on 20 minist so it could be wrong but in my ears it  sound good
Andr remebmer That i am onley 16 years old

//Andreas Ragnewall, Sweden

   Cause everytime we touch,  I get this feling   
e|--3----3--2--2------0-------0-2---2----2-3---------------------------------|
B|-----------------3---------------------------------------------------------|
G|---------------------------------------------------------------------------|
D|---------------------------------------------------------------------------|
A|---------------------------------------------------------------------------|
E|---------------------------------------------------------------------------|

       And everytime we kiss I swear I can fly


e|-----3---3-2-2-------------3-5-----3-2--0----------------------------------|
B|-------------------3--5----------------------------------------------------|
G|---------------------------------------------------------------------------|
D|---------------------------------------------------------------------------|
A|---------------------------------------------------------------------------|
E|---------------------------------------------------------------------------|


  Cant you feel my heart beet fast, I want this to last, need you by my side

e|3----2---2--------0----3----------3-2----0----2--3-----3-------------------|
B|--------------3-------------3-------------------------------3---0--3-------|
G|----------------------------------------------------------------------2----|
D|---------------------------------------------------------------------------|
A|---------------------------------------------------------------------------|
E|---------------------------------------------------------------------------|
Suggest correction
Creating personal tab
Creating personal tab
You can edit any tab online and save it as your Personal.

You can edit, replace or remove any tab part or add personal notes – all changes will be seen only by you.

Personal tabs can be accessed anytime from any device, even offline.
Learn more »
comments
print report bad tab
2 comments total.
+4 reply
Freudel 10 Apr 29, 2007 04:30 AM

I propose this one it seems better but i do not really know

Cause everytime we touch, I get this feling
e|--3----3--2--2--0---0-------0-2---0----2-3---------------------------------|
B|---------------------------------------------------------------------------|
G|---------------------------------------------------------------------------|
D|---------------------------------------------------------------------------|
A|---------------------------------------------------------------------------|
E|---------------------------------------------------------------------------|

And everytime we kiss I swear I can fly


e|-----3---3-2-2-----0--0----3-5-----3-2--0----------------------------------|
B|---------------------------------------------------------------------------|
G|---------------------------------------------------------------------------|
D|---------------------------------------------------------------------------|
A|---------------------------------------------------------------------------|
E|---------------------------------------------------------------------------|


Cant you feel my heart beet fast, I want this to last, need you by my side

e|3----2---2----0---0----3----------3-2----0----2--3-----3-------------------|
B|----------------------------3-------------------------------3---3--0--3----|
G|-------------------------------------------------------------------------2-|
D|---------------------------------------------------------------------------|
A|---------------------------------------------------------------------------|
E|---------------------------------------------------------------------------|

0 reply
yoshibabe93 10 Nov 24, 2008 01:08 AM

Well... It might be the different pitches... but my song is half a tone out of ur tabs. Instead of "3"s, i have to do "4"s. Ohh well.

Thank u anyway :)

xx

guest
You may want to rate the tab now too:
select rating
Wanna post a correction for this tab? Suggest correction