Oops, an error
Loading. Please wait.

Everytime We Touch tab

version 2
version 2

Interactive

by Cascada
9,165 views 3 this week
3 commentsread comments
1 2 3 4 5
x 4
add to favorites
×
Save as Personal and add changes to this tab that will be seen only by you. Learn more ›
×
You can save this tab as Personal to edit and correct it or add notes. All changes will be seen only by you. Learn more »
launch autoscroll
font size
0
reset
how to read this tab
guitar tuner
edit
Autoscroll
slow
fast
+/-
esc
set tempo
stop
Author
Difficulty
-------------------------------------------------------------------------------
                             Everytime We Touch- Cascada
-------------------------------------------------------------------------------
Tabbed by: DJ Lethal
Email:

Tuning: Standard

This is absolutely 100% right

Verse:

"i still...
e|---------------------------------------------------------------------------|
B|---------------------------------------------------------------------------|
G|-0-2-2-7-5-3-2-0-2-3-2---0-2-2-7-5-2-5-0-----------------------------------|
D|---------------------------------------------------------------------------|
A|---------------------------------------------------------------------------|
E|---------------------------------------------------------------------------|

"forgive me..."              "without you its hard...."
e|-------------------------------------1-3-3----------------------------------|
B|-6-5-3-1-------------------6-5-3-1-1----------------------------------------|
G|---------3-2-0-2-3-2-0------------------------------------------------------|
D|----------------------------------------------------------------------------|
A|----------------------------------------------------------------------------|
E|----------------------------------------------------------------------------|

Chorus:

"Cos everytime we...."      "and everytime we....."
e|-2-3-3-2-2-0-0-2-0-2-3----2-3-3-2-2-0-2-5-3-2-------------------------------|
B|----------------------------------------------------------------------------|
G|----------------------------------------------------------------------------|
D|----------------------------------------------------------------------------|
A|----------------------------------------------------------------------------|
E|----------------------------------------------------------------------------|

"can you feel....."            "i need u in my lfe"
e|-3-3-2-2-0-3-3-2-0-2-3-------3---------------------------------------------|
B|------------3-----------------3-3-0-3-3------------------------------------|
G|---------------------------------------------------------------------------|
D|---------------------------------------------------------------------------|
A|---------------------------------------------------------------------------|
E|---------------------------------------------------------------------------|

| /  slide up
| \  slide down
| h  hammer-on
| p  pull-off
| ~  vibrato
| +  harmonic
| x  Mute note
===============================================================================

            
            
Suggest correction
Creating personal tab
Creating personal tab
You can edit any tab online and save it as your Personal.

You can edit, replace or remove any tab part or add personal notes – all changes will be seen only by you.

Personal tabs can be accessed anytime from any device, even offline.
Learn more »
comments
print report bad tab
3 comments total.
0 reply
realsoccer63 54 Jun 20, 2007 05:13 PM

this might be correct but it's in a completely different key

0 reply
gangsta1033 20 Oct 02, 2007 01:25 PM

quite good :D good for begginers

0 reply
rudyroberts 10 Nov 13, 2007 03:52 PM

i have rated 1 star due to your arrogance of being sure its 100% correct when it so clearly isnt

guest
You may want to rate the tab now too:
select rating
Wanna post a correction for this tab? Suggest correction