Oops, an error
Loading. Please wait.

What Hurts The Most Acoustic tab

by Cascada
22,364 views 1 this week
no commentswrite comment
1 2 3 4 5
3 more votes to show rating
add to favorites
×
Save as Personal and add changes to this tab that will be seen only by you. Learn more ›
×
You can save this tab as Personal to edit and correct it or add notes. All changes will be seen only by you. Learn more »
launch autoscroll
font size
0
reset
how to read this tab
guitar tuner
edit
Autoscroll
slow
fast
+/-
esc
set tempo
stop
Author
This song is the tab for the song What Hurts The Most originally done by Cascada then 
acoustically by Boyce Avenue, most famously known on youtube.

TUNING: DGCFAD (Standard D - for those of you unfamiliar with it it's just basically a 
E tuning but with all the strings dropped a whole step down)

INTRO & FIRST VERSE (applies to all verses and end of first chorus):

d|---------------------------------------------0-----------------------------|
A|----------------------3--------------------3---------------------------3---|
F|--------------------0--------------------2---------------------------0-----|
C|------------------2--------------------0---------------------------2-------|
G|-0h2h3-2-0-------------------------------------------------------3---------|
D|------------3---0----------------------------------------------------------|

d|--------------------------------------------------0------------------------|
A|---------------------------------3--------------3--------------------------|
F|------------------0------------0--------------2----------------------------|
C|----------------4------------2--------------0------------------------------|
G|--------------3------------------------------------------------------------|
D|---------------------------0-----------------------------------------------|


d|---------------------------------------------------------------------------|
A|---------3-----------------------------------------------------------------|
F|-------0-------------2-----------------------------------------------------|
C|-----2-------------0-------------------------------------------------------|
G|---3-----------------------------------------------------------------------|
D|---------------------------------------------------------------------------|

PRECHORUS (applies to other prechoruses as well):

d|-------------------------------------------0-------------------------------|
A|-------------------3---------------------3-----------------------3---------|
F|-----------------0---------------------2-----------------------0-----------|
C|---------------2---------------------0-----------------------2-------------|
G|-------------3-------------------------------------------------------------|
D|-----------------------------------------------------------0---------------|


d|-----------------------0------------------------------------------0--------|
A|---------------------3-------------------3----------------------3----------|
F|-------------------2-------------------0----------------------2------------|
C|-----------------0-------------------2----------------------0--------------|
G|-----------------------------------3---------------------------------------|
D|---------------------------------------------------------------------------|


d|-------------------------0-------------------------------------------------|
A|----------------3------3---------------------------------------------------|
F|--------------0------2-----------------------------------------------------|
C|------------2------0-------------------------------------------------------|
G|---------------------------------------------------------------------------|
D|----------0----------------------------------------------------------------|

CHORUS:

d|-------------------------0-------------------------------------------------|
A|--3----------------------3----3-------------------------3------------------|
F|--0----------------------2----0-------------------------0------------------|
C|--2----------------------0----2-------------------------0------------------|
G|--2---------------------------3-------------------------2------------------|
D|--0-----------------------------------------------------3------------------|

d|-----------------0-------------------3---2-----------------------0---------|
A|-----------3--3--3-------------------3---3-------3---------------3---3-----|
F|-----------0--0--2-------------------2---2-------0---------------2---0-----|
C|-----------0--0--0-------------------0---0-------2---------------0---2-----|
G|-----------2--3----------------------------------2-------------------3-----|
D|-------------------------------------------------0-------------------------|


d|----------------------------------------------------0----------------------|
A|--------------------3-------------------------3--3--3----------------------|
F|--------------------0-------------------------0--0--2----------------------|
C|--------------------0-------------------------0--0--0----------------------|
G|--------------------2-------------------------2--3-------------------------|
D|--------------------3------------------------------------------------------|


d|-------------------------------------0-------------------------------------|
A|-----------------------3-----------3------------3--------------------------|
F|---------------------0-----------2------------0----------------------------|
C|-------------------2-----------0------------2------------------------------|
G|------------------------------------------3--------------------------------|
D|---------------0-----------------------------------------------------------|

BRIDGE/CHORUS(first half)

d|---3---2---3---2-----------|
A|---3---3---3---3-----3-----|
F|---2---2---2---2-----0-----|
C|---0---0---0---0-----2-----|
G|---------------------0-----|
D|---------------------------|

OUTRO


d|-------------------------------0-----------------------------|
A|-----------------3-----------3------------3------------------|
F|---------------0-----------2------------0--------------------|
C|-------------2-----------0------------2----------------------|
G|------------------------------------3------------------------|
D|---------0---------------------------------------------------|

d|---------------------------------------------0---------------|
A|----------------------3--------------------3---------3-------|
F|--------------------0--------------------2-----------0-------|
C|------------------2--------------------0-------------2-------|
G|-0h2h3-2-0-------------------------------------------3-------|
D|------------3---0--------------------------------------------|

Layout:

[Intro]
[Verse]
[PreChorus]
[Chorus]
[Intro]
[Verse]
[PreChorus]
[Bridge]
[Chorus]
[Outro]

Lyrics:

I can take the rain on the roof of this empty house
That don't bother me
I can take a few tears now and then and just
Let them out
I'm not afraid to cry
Every once in a while even though goin on with you gone still upsets me
There are days
Every now and again I pretend I'm OK but that's not what gets me

What hurts the most, was being so close
And having so much to say
And watching you walk away
Never knowing, what could have been
And not seeing that loving you
Is what I was trying to do

It's hard to deal with the pain of losing you everywhere I go
But I'm doing it
It's hard to force that smile when I see our old friends
And I'm alone
Still harder gettin up, gettin dressed, living with this regret
But I know if I could do it over
I would trade, give away all the words that I saved in my heart that I left unspoken

What hurts the most, was being so close
And having so much to say
And watching you walk away
Never knowing, what could have been
And not seeing that loving you
Is what I was trying to do

What hurts the most, was being so close
And having so much to say
And watching you walk away
Never knowing, what could have been
And not seeing that loving you
Is what I was trying to do

            
            
Suggest correction
Creating personal tab
Creating personal tab
You can edit any tab online and save it as your Personal.

You can edit, replace or remove any tab part or add personal notes – all changes will be seen only by you.

Personal tabs can be accessed anytime from any device, even offline.
Learn more »
Give kudos to tab author, rate the tab!
1 2 3 4 5
comments
print report bad tab
guest
You may want to rate the tab now too:
select rating
Wanna post a correction for this tab? Suggest correction