Oops, an error
Loading. Please wait.

Atomic Number Tab

103 views 6 this week
no commentswrite comment
1 2 3 4 5
1 last vote to show rating
add to favorites
launch autoscroll
font size
0
reset
how to read this tab
guitar tuner
Autoscroll
slow
fast
+/-
esc
set tempo
stop
Help us to improve Ultimate-Guitar.com Take our survey!
×
Author
Difficulty
Capo
novice
6th fret
D tuning.
Capo on 6th fret.


[Intro]

e-|--------------------------------|--------------------------------|
B-|--------------------------------|--------------------------------|
F#|----0-----0-----0-----0-----0---|----0-----0-----0-----0-----0---|
D-|--2-----2-----2-----2-----2-----|--2-----2-----2-----2-----2-----| 
A-|--------------------------------|--------------------------------|
D-|0-----0-----0-----0-----0-------|0-----0-----0-----0-----0-------|(x2)
   ^ ' ' ' ^ ' ' ' ^ ' ' ' ^ ' ' ' |^ ' ' ' ^ ' ' ' ^ ' ' ' ^ ' ' ' |
   1       2       3       4        1       2       3       4        


[Verse 1]

e-|--------------------------------|--------------------------------|--------------------------------|
B-|--------------------------------|--------------------------------|--------------------------------|
F#|----0-----0-----0-----0-----0---|----0-----0-----0-----0-----0---|----0-----0-----0-----0---------|
D-|--2-----2-----2-----2-----2-----|--2-----2-----2-----2-----2-----|--0-----0-----0-----0-------0---|
A-|--------------------------------|--------------------------------|2-----2-----2-----4-----4-------|
D-|0-----0-----0-----0-----0-------|0-----0-----0-----0-----0-------|--------------------------------|
   ^ ' ' ' ^ ' ' ' ^ ' ' ' ^ ' ' ' |^ ' ' ' ^ ' ' ' ^ ' ' ' ^ ' ' ' |^ ' ' ' ^ ' ' ' ^ ' ' ' ^ ' ' ' |
   1       2       3       4        1       2       3       4        1       2       3       4        
   i'm not the freckled maid        i'm not a pail of milk for you to spoil
                   i'm not the fair haired girl

e-|--------------------------------|--------------------------------|--------------------------------|
B-|--------------------------------|--------------------------------|--------------------------------|
F#|----0-----0-----0-----0-----0---|----0-----0-----------0---------|----0-----0-----0-----0-----0---|
D-|--2-----2-----2-----2-----2-----|--0-----0-----------0-------0---|--2-----2-----2-----2-----2-----|
A-|--------------------------------|2-----2-----2-----4-----4-------|--------------------------------|
D-|0-----0-----0-----0-----0-------|--------------------------------|0-----0-----0-----0-----0-------|
   ^ ' ' ' ^ ' ' ' ^ ' ' ' ^ ' ' ' |^ ' ' ' ^ ' ' ' ^ ' ' ' ^ ' ' ' |^ ' ' ' ^ ' ' ' ^ ' ' ' ^ ' ' ' |
   1       2       3       4        1       2       3       4        1       2       3       4        
                       why are the wholesome things
                                                  the ones we make obscene


[Chorus 1]

e-|--------------------------------|--------------------------------|
B-|--------------------------------|--------------------------------|
F#|----0-----0-----0-----0-----0---|----0-----0-----0-----0-----0---|
D-|--0-----0-----0-----0-----0-----|--0-----0-----0-----0-----0-----|
A-(5)------------------------------(2)------------------------------|
D-|5-----5-----5-----5-----5-------|2-----2-----2-----2-----2-------|
   ^ ' ' ' ^ ' ' ' ^ ' ' ' ^ ' ' ' |^ ' ' ' ^ ' ' ' ^ ' ' ' ^ ' ' ' |
   1       2       3       4        1       2       3       4        
   latin words across my heart      symbols of infinity

e-|--------------------------------|--------------------------------|
B-|--------------------------------|--------------------------------|
F#|----0-----0-----0-----0-----0---|----0-----0-----0-----0-----0---|
D-|--0-----0-----0-----0-----0-----|--2-----2-----2-----2-----2-----|
A-(5)------------------------------|2-----2-----2-----2-----2-------|
D-|5-----5-----5-----5-----5-------|--------------------------------|
   ^ ' ' ' ^ ' ' ' ^ ' ' ' ^ ' ' ' |^ ' ' ' ^ ' ' ' ^ ' ' ' ^ ' ' ' |
   1       2       3       4        1       2       3       4        
   elements so pure       atomic number


[Verse 1]

e-|--------------------------------|--------------------------------|--------------------------------|
B-|--------------------------------|--------------------------------|--------------------------------|
F#|----0-----0-----0-----0-----0---|----0-----0-----0-----0-----0---|----0-----0-----0-----0---------|
D-|--2-----2-----2-----2-----2-----|--2-----2-----2-----2-----2-----|--0-----0-----0-----0-------0---|
A-|--------------------------------|--------------------------------|2-----2-----2-----4-----4-------|
D-|0-----0-----0-----0-----0-------|0-----0-----0-----0-----0-------|--------------------------------|
   ^ ' ' ' ^ ' ' ' ^ ' ' ' ^ ' ' ' |^ ' ' ' ^ ' ' ' ^ ' ' ' ^ ' ' ' |^ ' ' ' ^ ' ' ' ^ ' ' ' ^ ' ' ' |
   1       2       3       4        1       2       3       4        1       2       3       4        
   i am the spark   of this machine         purring like a           city bus

e-|--------------------------------|--------------------------------|--------------------------------|
B-|--------------------------------|--------------------------------|--------------------------------|
F#|----0-----0-----0-----0-----0---|----0-----0-----------0---------|----0-----0-----0-----0-----0---|
D-|--2-----2-----2-----2-----2-----|--0-----0-----------0-------0---|--2-----2-----2-----2-----2-----|
A-|--------------------------------|2-----2-----2-----4-----4-------|--------------------------------|
D-|0-----0-----0-----0-----0-------|--------------------------------|0-----0-----0-----0-----0-------|
   ^ ' ' ' ^ ' ' ' ^ ' ' ' ^ ' ' ' |^ ' ' ' ^ ' ' ' ^ ' ' ' ^ ' ' ' |^ ' ' ' ^ ' ' ' ^ ' ' ' ^ ' ' ' |
   1       2       3       4        1       2       3       4        1       2       3       4        
                        why are the wholesome things                                      well if your
                                                the ones we make obscene

e-|--------------------------------|--------------------------------|
B-|--------------------------------|--------------------------------|
F#|----0-----0-----------0---------|----0-----0-----0-----0-----0---|
D-|--0-----0-----------0-------0---|--2-----2-----2-----2-----2-----|
A-|2-----2-----2-----4-----4-------|--------------------------------|
D-|--------------------------------|0-----0-----0-----0-----0-------|
   ^ ' ' ' ^ ' ' ' ^ ' ' ' ^ ' ' ' |^ ' ' ' ^ ' ' ' ^ ' ' ' ^ ' ' ' |
   1       2       3       4        1       2       3       4        
   mercy's lost i have enough for us


[Chorus 2]

e-|--------------------------------|--------------------------------|
B-|--------------------------------|--------------------------------|
F#|----0-----0-----0-----0-----0---|----0-----0-----0-----0-----0---|
D-|--0-----0-----0-----0-----0-----|--0-----0-----0-----0-----0-----|
A-(5)------------------------------(2)------------------------------|
D-|5-----5-----5-----5-----5-------|2-----2-----2-----2-----2-------|
   ^ ' ' ' ^ ' ' ' ^ ' ' ' ^ ' ' ' |^ ' ' ' ^ ' ' ' ^ ' ' ' ^ ' ' ' |
   1       2       3       4        1       2       3       4        
   latin words across my heart      symbols of infinity

e-|--------------------------------|--------------------------------|
B-|--------------------------------|--------------------------------|
F#|----0-----0-----0-----0-----0---|----0-----0-----0-----0-----0---|
D-|--0-----0-----0-----0-----0-----|--2-----2-----2-----2-----2-----|
A-(5)------------------------------|2-----2-----2-----2-----2-------|
D-|5-----5-----5-----5-----5-------|--------------------------------|
   ^ ' ' ' ^ ' ' ' ^ ' ' ' ^ ' ' ' |^ ' ' ' ^ ' ' ' ^ ' ' ' ^ ' ' ' |
   1       2       3       4        1       2       3       4        
   elements so pure       atomic number


[Bridge]

e-|--------------------------------|--------------------------------|
B-|--------------------------------|----2-----2---------------------|
F#|----5-----5-----5-----5-----5---|--0-----0-----------3-----3-----|
D-|--0-----0-----0-----0-----0-----|------------------0-----0-------|
A-|--------------------------------|2-----2-----2-------------------|
D-|5-----5-----5-----5-----5-------|----------------2-----2-----2---|
   ^ ' ' ' ^ ' ' ' ^ ' ' ' ^ ' ' ' |^ ' ' ' ^ ' ' ' ^ ' ' ' ^ ' ' ' |
   1       2       3       4        1       2       3       4        

e-|--------------------------------|--------------------------------|
B-|--------------------------------|----2-----2---------2-----2-----|
F#|----5-----5-----5-----5-----5---|--0-----0-----0---0-----0-------|
D-|--0-----0-----0-----0-----0-----|--------------------------------|
A-|--------------------------------|2-----2-----2---2-----2-----2---|
D-|5-----5-----5-----5-----5-------|--------------------------------|
   ^ ' ' ' ^ ' ' ' ^ ' ' ' ^ ' ' ' |^ ' ' ' ^ ' ' ' ^ ' ' ' ^ ' ' ' |
   1       2       3       4        1       2       3       4        

e-|--------------------------------|--------------------------------|
B-|--------------------------------|----2-----2---------------------|
F#|----5-----5---------5-----5-----|--0-----0-----------3-----3-----|
D-|--0-----0-----0---0-----0-------|------------------0-----0-------|
A-|--------------------------------|2-----2-----2-------------------|
D-|5-----5-----5---5-----5-----5---|----------------2-----2-----2---|
   ^ ' ' ' ^ ' ' ' ^ ' ' ' ^ ' ' ' |^ ' ' ' ^ ' ' ' ^ ' ' ' ^ ' ' ' |
   1       2       3       4        1       2       3       4        

e-|--------------------------------|--------------------------------|
B-|--------------------------------|----2-----2-----2-----2-----2---|
F#|----5-----5---------5-----5-----|--0-----0-----0-----0-----0-----|
D-|--0-----0-----0---0-----0-------|--------------------------------|
A-|--------------------------------|2-----2-----2-----2-----2-------|
D-|5-----5-----5---5-----5-----5---|--------------------------------|
   ^ ' ' ' ^ ' ' ' ^ ' ' ' ^ ' ' ' |^ ' ' ' ^ ' ' ' ^ ' ' ' ^ ' ' ' |
   1       2       3       4        1       2       3       4        


[Chorus 3]

e-|--------------------------------|--------------------------------|
B-|--------------------------------|--------------------------------|
F#|----0-----0-----0-----0-----0---|----0-----0-----0-----0-----0---|
D-|--0-----0-----0-----0-----0-----|--0-----0-----0-----0-----0-----|
A-(5)------------------------------(2)------------------------------|
D-|5-----5-----5-----5-----5-------|2-----2-----2-----2-----2-------|
   ^ ' ' ' ^ ' ' ' ^ ' ' ' ^ ' ' ' |^ ' ' ' ^ ' ' ' ^ ' ' ' ^ ' ' ' |
   1       2       3       4        1       2       3       4        
   latin words across my heart      symbols of infinity

e-|--------------------------------|--------------------------------|
B-|--------------------------------|--------------------------------|
F#|----0-----0-----0-----0-----0---|----0-----0-----0-----0-----0---|
D-|--0-----0-----0-----0-----0-----|--2-----2-----2-----2-----2-----|
A-(5)------------------------------|2-----2-----2-----2-----2-------|
D-|5-----5-----5-----5-----5-------|--------------------------------|
   ^ ' ' ' ^ ' ' ' ^ ' ' ' ^ ' ' ' |^ ' ' ' ^ ' ' ' ^ ' ' ' ^ ' ' ' |
   1       2       3       4        1       2       3       4        
   elements so pure       atomic number                    my atomic

e-|--------------------------------|--------------------------------|--------------------------------|
B-|--------------------------------|--------------------------------|--------------------------------|
F#|----0-----0-----0-----0-----0---|----0-----0-----0-----0-----0---|----0-----0-----0-----0-----0---|
D-|--0-----0-----0-----0-----0-----|--2-----2-----2-----2-----2-----|--2-----2-----2-----2-----2-----|
A-(5)------------------------------(2)------------------------------|2-----2-----2-----2-----2-------|
D-|5-----5-----5-----5-----5-------|2-----2-----2-----2-----2-------|--------------------------------|
   ^ ' ' ' ^ ' ' ' ^ ' ' ' ^ ' ' ' |^ ' ' ' ^ ' ' ' ^ ' ' ' ^ ' ' ' |^ ' ' ' ^ ' ' ' ^ ' ' ' ^ ' ' ' |
   1       2       3       4        1       2       3       4        1       2       3       4        
   number              my atomic number                 my atomic number


[Outro]

e-|--------------------------------|--------------------------------|
B-|--------------------------------|----2-----2---------------------|
F#|----5-----5---------5-----5-----|--0-----0-----------3-----3-----|
D-|--0-----0-----0---0-----0-------|------------------0-----0-------|
A-|--------------------------------|2-----2-----2-------------------|
D-|5-----5-----5---5-----5-----5---|----------------2-----2-----2---|
   ^ ' ' ' ^ ' ' ' ^ ' ' ' ^ ' ' ' |^ ' ' ' ^ ' ' ' ^ ' ' ' ^ ' ' ' |
   1       2       3       4        1       2       3       4        

e-|--------------------------------|--------------------------------|
B-|--------------------------------|----2-----2-----2-----2-----2---|
F#|----5-----5---------5-----5-----|--0-----0-----0-----0-----0-----|
D-|--0-----0-----0---0-----0-------|--------------------------------|
A-|--------------------------------|2-----2-----2-----2-----2-------|
D-|5-----5-----5---5-----5-----5---|--------------------------------|
   ^ ' ' ' ^ ' ' ' ^ ' ' ' ^ ' ' ' |^ ' ' ' ^ ' ' ' ^ ' ' ' ^ ' ' ' |
   1       2       3       4        1       2       3       4        

e-|--------------------------------|--------------------------------|
B-|--------------------------------|----2-----2---------------------|
F#|----5-----5---------5-----5-----|--0-----0-----------3-----3-----|
D-|--0-----0-----0---0-----0-------|------------------0-----0-------|
A-|--------------------------------|2-----2-----2-------------------|
D-|5-----5-----5---5-----5-----5---|----------------2-----2-----2---|
   ^ ' ' ' ^ ' ' ' ^ ' ' ' ^ ' ' ' |^ ' ' ' ^ ' ' ' ^ ' ' ' ^ ' ' ' |
   1       2       3       4        1       2       3       4        

e-|--------------------------------|--------------------------------|----------------0---------------|
B-|--------------------------------|----2-----2-----2-----2-----2---|----2---2-------2---------------|
F#|----5-----5---------5-----5-----|--0-----0-----0-----0-----0-----|--0-------0-----0---------------|
D-|--0-----0-----0---0-----0-------|--------------------------------|------------0---0---------------|
A-|--------------------------------|2-----2-----2-----2-----2-------|2-----2---------2---------------|
D-|5-----5-----5---5-----5-----5---|--------------------------------|--------------------------------|
   ^ ' ' ' ^ ' ' ' ^ ' ' ' ^ ' ' ' |^ ' ' ' ^ ' ' ' ^ ' ' ' ^ ' ' ' |^ ' ' ' ^ ' ' ' ^ ' ' ' ^ ' ' ' |
   1       2       3       4        1       2       3       4        1       2       3       4



************************************

| (n)  Ghost note   

************************************
Suggest correction
Give kudos to tab author, rate the tab!
1 2 3 4 5
comments
print report bad tab
guest
You may want to rate the tab now too:
select rating
Wanna post a correction for this tab? Suggest correction