Oops, an error
Loading. Please wait.

Behind The Armory tab

523 views 15 this week
no commentswrite comment
1 2 3 4 5
2 more votes to show rating
add to favorites
×
Save as Personal and add changes to this tab that will be seen only by you. Learn more ›
×
You can save this tab as Personal to edit and correct it or add notes. All changes will be seen only by you. Learn more »
launch autoscroll
font size
0
reset
how to read this tab
guitar tuner
edit
Autoscroll
slow
fast
+/-
esc
set tempo
stop
[INTRO]:

e-|--------------------------------|--------------------------------|
b-|------1-------1-------1-------1-|------1-------1-------1-------1-|
g-|--2-------2-------2-------2-----|--2-------2-------2-------2-----|
d-|----2-------2-------2-------2---|----2-------2-------2-------2---|
a-|0-------0-------0-------0-------|0-------0-------0-------0-------|
E-|--------------------------------|--------------------------------|
   ^ ' ' ' ^ ' ' ' ^ ' ' ' ^ ' ' ' |^ ' ' ' ^ ' ' ' ^ ' ' ' ^ ' ' ' |
   1       2       3       4        1       2       3       4       

[VERSE 1]:

e-|--------------------------------|--------------------------------|
b-|------1-------1-------1-------1-|------0-------0-------3-------3-|
g-|--2-------2-------0-------0-----|--0-------0-------2-------2-----|
d-|----2-------2-------2-------2---|----0-------0-------4-------4---|
a-|0-------0-----------------------|----------------5-------5-------|
E-|----------------3-------3-------|3-------3-----------------------|
   ^ ' ' ' ^ ' ' ' ^ ' ' ' ^ ' ' ' |^ ' ' ' ^ ' ' ' ^ ' ' ' ^ ' ' ' |
   1       2       3       4        1       2       3       4       
   flies in amber sand in soap     air trapped in the glass

e-|--------------------------------|--------------------------------|
b-|------1-------1-------1-------1-|------0-------0-------3-------3-|
g-|--2-------2-------0-------0-----|--0-------0-------2-------2-----|
d-|----2-------2-------2-------2---|----0-------0-------4-------4---|
a-|0-------0-----------------------|----------------5-------5-------|
E-|----------------3-------3-------|3-------3-----------------------|
   ^ ' ' ' ^ ' ' ' ^ ' ' ' ^ ' ' ' |^ ' ' ' ^ ' ' ' ^ ' ' ' ^ ' ' ' |
   1       2       3       4        1       2       3       4       
   tongue tied i cut and run        fleeing ever faster

[CHORUS 1]:

e-|--------------------------------|--------------------------------|
b-|------3-------0-------0-------0-|------0-------0-------1-------1-|
g-|--0-------0-------2-------2-----|--0-------0-------0-------0-----|
d-|----2-------2-------1-------1---|----2-------2-------2-------2---|
a-|3-------3-------2-------2-------|--------------------------------|
E-|--------------------------------|0-------0-------3-------3-------|
   ^ ' ' ' ^ ' ' ' ^ ' ' ' ^ ' ' ' |^ ' ' ' ^ ' ' ' ^ ' ' ' ^ ' ' ' |
   1       2       3       4        1       2       3       4       
   behind the armory                i will never let you see

e-|--------------------------------|--------------------------------|
b-|------3-------0-------0-------0-|------0-------0-------1-------1-|
g-|--0-------0-------2-------2-----|--0-------0-------0-------0-----|
d-|----2-------2-------1-------1---|----2-------2-------2-------2---|
a-|3-------3-------2-------2-------|--------------------------------|
E-|--------------------------------|0-------0-------3-------3-------|
   ^ ' ' ' ^ ' ' ' ^ ' ' ' ^ ' ' ' |^ ' ' ' ^ ' ' ' ^ ' ' ' ^ ' ' ' |
   1       2       3       4        1       2       3       4       
   behind the armory                                still i want you to

e-|--------------------------------|
b-|------0-------0-------0-------0-|
g-|--0-------0-------0-------0-----|
d-|----0-------0-------0-------0---|
a-|--------------------------------|
E-|3-------3-------3-------3-------|
   ^ ' ' ' ^ ' ' ' ^ ' ' ' ^ ' ' ' |
   1       2       3       4        
   love me

[VERSE 2]

e-|--------------------------------|--------------------------------|
b-|------1-------1-------1-------1-|------0-------0-------3-------3-|
g-|--2-------2-------0-------0-----|--0-------0-------2-------2-----|
d-|----2-------2-------2-------2---|----0-------0-------4-------4---|
a-|0-------0-----------------------|----------------5-------5-------|
E-|----------------3-------3-------|3-------3-----------------------|
   ^ ' ' ' ^ ' ' ' ^ ' ' ' ^ ' ' ' |^ ' ' ' ^ ' ' ' ^ ' ' ' ^ ' ' ' |
   1       2       3       4        1       2       3       4       
   sleeping giant joan of arc       fold me in your grace

e-|--------------------------------|--------------------------------|
b-|------1-------1-------1-------1-|------0-------0-------3-------3-|
g-|--2-------2-------0-------0-----|--0-------0-------2-------2-----|
d-|----2-------2-------2-------2---|----0-------0-------4-------4---|
a-|0-------0-----------------------|----------------5-------5-------|
E-|----------------3-------3-------|3-------3-----------------------|
   ^ ' ' ' ^ ' ' ' ^ ' ' ' ^ ' ' ' |^ ' ' ' ^ ' ' ' ^ ' ' ' ^ ' ' ' |
   1       2       3       4        1       2       3       4       
   from the garbage to the stars    make new constellations

[CHORUS 2]

e-|--------------------------------|--------------------------------|
b-|------3-------0-------0-------0-|------0-------0-------1-------1-|
g-|--0-------0-------2-------2-----|--0-------0-------0-------0-----|
d-|----2-------2-------1-------1---|----2-------2-------2-------2---|
a-|3-------3-------2-------2-------|--------------------------------|
E-|--------------------------------|0-------0-------3-------3-------|
   ^ ' ' ' ^ ' ' ' ^ ' ' ' ^ ' ' ' |^ ' ' ' ^ ' ' ' ^ ' ' ' ^ ' ' ' |
   1       2       3       4        1       2       3       4       
   behind the armory                                still i want you to

e-|--------------------------------|--------------------------------|
b-|------0-------0-------3-------1-|------1-------1-------1-------1-|
g-|--0-------0-------2-------2-----|--0-------0-------0-------0-----|
d-|----0-------0-------4-------4---|----2-------2-------2-------2---|
a-|----------------5-------5-------|3-------3-------3-------3-------|
E-|3-------3-----------------------|--------------------------------|
   ^ ' ' ' ^ ' ' ' ^ ' ' ' ^ ' ' ' |^ ' ' ' ^ ' ' ' ^ ' ' ' ^ ' ' ' |
   1       2       3       4        1       2       3       4        
   love me         still i want you to love me

[BRIDGE 1]

e-|--------------------------------|--------------------------------|
b-|------1-------1-------0-------0-|------1-------1-------0-------0-|
g-|--0-------0-------0-------0-----|--0-------0-------0-------0-----|
d-|----2-------2-------0-------0---|----2-------2-------2-------2---|
a-|3-------3-----------------------|3-------3-----------------------|
E-|----------------3-------3-------|----------------0-------0-------|
   ^ ' ' ' ^ ' ' ' ^ ' ' ' ^ ' ' ' |^ ' ' ' ^ ' ' ' ^ ' ' ' ^ ' ' ' |
   1       2       3       4        1       2       3       4       
   through the vines and the street        as narrow as the archer's 
   slants the light and the heat             window grows but it's a

e-|--------------------------------|--------------------------------|
b-|------4-------4-------4-------4-|------1-------1-------1-------1-|
g-|--5-------5-------5-------5-----|--2-------2-------2-------2-----|
d-|----5-------5-------5-------5---|----2-------2-------2-------2---|
a-|3-------3-------3-------3-------|0-------0-------0-------0-------|
E-|--------------------------------|--------------------------------|
   ^ ' ' ' ^ ' ' ' ^ ' ' ' ^ ' ' ' |^ ' ' ' ^ ' ' ' ^ ' ' ' ^ ' ' ' |
   1       2       3       4        1       2       3       4       
   rare stone      in a century's thrown to me

e-|--------------------------------|--------------------------------|
b-|------3-------0-------0-------0-|------0-------0-------1-------1-|
g-|--0-------0-------2-------2-----|--0-------0-------0-------0-----|
d-|----2-------2-------1-------1---|----2-------2-------2-------2---|
a-|3-------3-------2-------2-------|--------------------------------|
E-|--------------------------------|0-------0-------3-------3-------|
   ^ ' ' ' ^ ' ' ' ^ ' ' ' ^ ' ' ' |^ ' ' ' ^ ' ' ' ^ ' ' ' ^ ' ' ' |
   1       2       3       4        1       2       3       4       

e-|--------------------------------|--------------------------------|
b-|------1-------1-------0-------0-|------0-------0-------1-------1-|
g-|--0-------0-------2-------2-----|--0-------0-------0-------0-----|
d-|----2-------2-------1-------1---|----2-------2-------2-------2---|
a-|3-------3-------2-------2-------|--------------------------------|
E-|--------------------------------|0-------0-------3-------3-------|
   ^ ' ' ' ^ ' ' ' ^ ' ' ' ^ ' ' ' |^ ' ' ' ^ ' ' ' ^ ' ' ' ^ ' ' ' |
   1       2       3       4        1       2       3       4       

e-|--------------------------------|--------------------------------|
b-|------0-------0-------3-------0-|------0-------0-------0-------0-|
g-|--0-------0-------2-------2-----|--0-------0-------0-------0-----|
d-|----0-------0-------4-------4---|----0-------0-------0-------0---|
a-|----------------5-------5-------|--------------------------------|
E-|3-------3-----------------------|3-------3-------3-------3-------|
   ^ ' ' ' ^ ' ' ' ^ ' ' ' ^ ' ' ' |^ ' ' ' ^ ' ' ' ^ ' ' ' ^ ' ' ' |
   1       2       3       4        1       2       3       4        

[BRIDGE 2]

e-|--------------------------------|--------------------------------|
b-|------1-------1-------0-------0-|------1-------1-------0-------0-|
g-|--0-------0-------0-------0-----|--0-------0-------0-------0-----|
d-|----2-------2-------0-------0---|----2-------2-------2-------2---|
a-|3-------3-----------------------|3-------3-----------------------|
E-|----------------3-------3-------|----------------0-------0-------|
   ^ ' ' ' ^ ' ' ' ^ ' ' ' ^ ' ' ' |^ ' ' ' ^ ' ' ' ^ ' ' ' ^ ' ' ' |
   1       2       3       4        1       2       3       4       
   through the vines from the street       as narrow as the archer's 
   slants the light and the heat                        window grows

[CHORUS 3]

e-|--------------------------------|--------------------------------|
b-|------3-------0-------0-------0-|------0-------0-------1-------1-|
g-|--0-------0-------2-------2-----|--0-------0-------0-------0-----|
d-|----2-------2-------1-------1---|----2-------2-------2-------2---|
a-|3-------3-------2-------2-------|--------------------------------|
E-|--------------------------------|0-------0-------3-------3-------|
   ^ ' ' ' ^ ' ' ' ^ ' ' ' ^ ' ' ' |^ ' ' ' ^ ' ' ' ^ ' ' ' ^ ' ' ' |
   1       2       3       4        1       2       3       4       
   behind the armory                i will never let you see

e-|--------------------------------|--------------------------------|
b-|------3-------0-------0-------0-|------0-------0-------1-------1-|
g-|--0-------0-------2-------2-----|--0-------0-------0-------0-----|
d-|----2-------2-------1-------1---|----2-------2-------2-------2---|
a-|3-------3-------2-------2-------|--------------------------------|
E-|--------------------------------|0-------0-------3-------3-------|
   ^ ' ' ' ^ ' ' ' ^ ' ' ' ^ ' ' ' |^ ' ' ' ^ ' ' ' ^ ' ' ' ^ ' ' ' |
   1       2       3       4        1       2       3       4       
   behind the armory                                still i want you to

e-|--------------------------------|--------------------------------|
b-|------0-------0-------3-------3-|1-------------------------------|
g-|--0-------0-------2-------2-----|0-------------------------------|
d-|----0-------0-------4-------4---|2-------------------------------|
a-|----------------5-------5-------|x-------------------------------|
E-|3-------3-----------------------|3-------------------------------|
   ^ ' ' ' ^ ' ' ' ^ ' ' ' ^ ' ' ' |^ ' ' ' ^ ' ' ' ^ ' ' ' ^ ' ' ' |
   1       2       3       4        1       2       3       4        
   love me         still i want you to love me

            
            
Suggest correction
Creating personal tab
Creating personal tab
You can edit any tab online and save it as your Personal.

You can edit, replace or remove any tab part or add personal notes – all changes will be seen only by you.

Personal tabs can be accessed anytime from any device, even offline.
Learn more »
Give kudos to tab author, rate the tab!
1 2 3 4 5
comments
print report bad tab
guest
You may want to rate the tab now too:
select rating
Wanna post a correction for this tab? Suggest correction