Oops, an error
Loading. Please wait.

Supermoon Tab

142 views 3 this week
no commentswrite comment
1 2 3 4 5
3 more votes to show rating
add to favorites
launch autoscroll
font size
0
reset
how to read this tab
guitar tuner
Autoscroll
slow
fast
+/-
esc
set tempo
stop
Help us to improve Ultimate-Guitar.com Take our survey!
×
Author
Difficulty
Capo
novice
2nd fret
Open A tuning
Capo on 2nd fret

[INTRO]:

e-|------------------------|----0-----0-0-------0-----0-0---|
a-|------------------------|----0-----0-0-------0-----0-0---|
e-|----0-------0-----------|----0-----0-0-------0-----0-0---|
c#|----0-------0-----------|----0-----0-0-------0-----0-0---|
a-|------------------------|--------------------------------|
E-|2-------4-------5---4---|0---------------0---------------|
   ^ ' ' ' ^ ' ' ' ^ ' ' ' |^ ' ' ' ^ ' ' ' ^ ' ' ' ^ ' ' ' |
   1       2       3        1       2       3       4        

e-|------------------------|----0-----0-0-------0-----0-0---|
a-|------------------------|----0-----0-0-------0-----0-0---|
e-|----0-------0-----------|----0-----0-0-------0-----0-0---|
c#|----0-------0-----------|----0-----0-0-------0-----0-0---|
a-|------------------------|--------------------------------|
E-|2-------4-------5---4---|0---------------0---------------|
   ^ ' ' ' ^ ' ' ' ^ ' ' ' |^ ' ' ' ^ ' ' ' ^ ' ' ' ^ ' ' ' |
   1       2       3        1       2       3       4        
                                                    super
[VERSE 1]

e-|----0-----0-0-------0-----0-0---|----0-----0-0-------0-----0-0---|
a-|----0-----0-0-------0-----0-0---|----0-----0-0-------0-----0-0---|
e-|----0-----0-0-------0-----0-0---|----0-----0-0-------0-----0-0---|
c#|----0-----0-0-------0-----0-0---|----0-----0-0-------0-----0-0---|
a-|--------------------------------|--------------------------------|
E-|2---------------2---------------|0---------------0---------------|
   ^ ' ' ' ^ ' ' ' ^ ' ' ' ^ ' ' ' |^ ' ' ' ^ ' ' ' ^ ' ' ' ^ ' ' ' |
   1       2       3       4        1       2       3       4        
   moon                       where all the         diamond

e-|----0-----0-0-------0-----0-0---|----0-----0-0-------0-----0-0---|
a-|----0-----0-0-------0-----0-0---|----0-----0-0-------0-----0-0---|
e-|----5-----5-5-------5-----5-5---|----2-----2-2-------2-----2-2---|
c#|----x-----x-x-------x-----x-x---|----x-----x-x-------x-----x-x---|
a-|5---------------5---------------|2---------------2---------------|
E-|--------------------------------|--------------------------------|
   ^ ' ' ' ^ ' ' ' ^ ' ' ' ^ ' ' ' |^ ' ' ' ^ ' ' ' ^ ' ' ' ^ ' ' ' |
   1       2       3       4        1       2       3       4        
   deals                        are made

e-|----0-----0-0-------0-----0-0---|----0-----0-0-------0-----0-0---|
a-|----0-----0-0-------0-----0-0---|----0-----0-0-------0-----0-0---|
e-|----0-----0-0-------0-----0-0---|----0-----0-0-------0-----0-0---|
c#|----0-----0-0-------0-----0-0---|----0-----0-0-------0-----0-0---|
a-|--------------------------------|--------------------------------|
E-|2---------------2---------------|0---------------0---------------|
   ^ ' ' ' ^ ' ' ' ^ ' ' ' ^ ' ' ' |^ ' ' ' ^ ' ' ' ^ ' ' ' ^ ' ' ' |
   1       2       3       4        1       2       3       4        
we never used to live this long       we're pioneers    my dear press

e-|----0-----0-0-------0-----0-0---|----0-----0-0-------0-----0-0---|
a-|----0-----0-0-------0-----0-0---|----0-----0-0-------0-----0-0---|
e-|----5-----5-5-------5-----5-5---|----2-----2-2-------2-----2-2---|
c#|----x-----x-x-------x-----x-x---|----x-----x-x-------x-----x-x---|
a-|5---------------5---------------|2---------------2---------------|
E-|--------------------------------|--------------------------------|
   ^ ' ' ' ^ ' ' ' ^ ' ' ' ^ ' ' ' |^ ' ' ' ^ ' ' ' ^ ' ' ' ^ ' ' ' |
   1       2       3       4        1       2       3       4        
   on                         move along                   and if my

e-|----0-----0-0-------0-----0-0---|----0-----0-0-------0-----0-0---|
a-|----0-----0-0-------0-----0-0---|----0-----0-0-------0-----0-0---|
e-|----0-----0-0-------0-----0-0---|----0-----0-0-------0-----0-0---|
c#|----0-----0-0-------0-----0-0---|----0-----0-0-------0-----0-0---|
a-|--------------------------------|--------------------------------|
E-|2---------------2---------------|0---------------0---------------|
   ^ ' ' ' ^ ' ' ' ^ ' ' ' ^ ' ' ' |^ ' ' ' ^ ' ' ' ^ ' ' ' ^ ' ' ' |
   1       2       3       4        1       2       3       4        
   smile                      seems painted         on           

e-|----0-----0-0-------0-----0-0---|----0-----0-0-------0-----0-0---|
a-|----0-----0-0-------0-----0-0---|----0-----0-0-------0-----0-0---|
e-|----5-----5-5-------5-----5-5---|----2-----2-2-------2-----2-2---|
c#|----x-----x-x-------x-----x-x---|----x-----x-x-------x-----x-x---|
a-|5---------------5---------------|2---------------2---------------|
E-|--------------------------------|--------------------------------|
   ^ ' ' ' ^ ' ' ' ^ ' ' ' ^ ' ' ' |^ ' ' ' ^ ' ' ' ^ ' ' ' ^ ' ' ' |
   1       2       3       4        1       2       3       4        
   once in a while                                    i can count on

e-|----0-----0-0-------0-----0-0---|----0-----0-0-------0-----0-0---|
a-|----0-----0-0-------0-----0-0---|----0-----0-0-------0-----0-0---|
e-|----0-----0-0-------0-----0-0---|----0-----0-0-------0-----0-0---|
c#|----0-----0-0-------0-----0-0---|----0-----0-0-------0-----0-0---|
a-|--------------------------------|--------------------------------|
E-|2---------------2---------------|0---------------0---------------|
   ^ ' ' ' ^ ' ' ' ^ ' ' ' ^ ' ' ' |^ ' ' ' ^ ' ' ' ^ ' ' ' ^ ' ' ' |
   1       2       3       4        1       2       3       4        
   you                           to notice          and     to

e-|----0-----0-0-------0-----0-0---|----0-----0-0-------0-----0-0---|----0-----0-0---|
a-|----0-----0-0-------0-----0-0---|----0-----0-0-------0-----0-0---|----0-----0-0---|
e-|----5-----5-5-------5-----5-5---|----2-----2-2-------2-----2-2---|----2-----2-2---|
c#|----x-----x-x-------x-----x-x---|----x-----x-x-------x-----x-x---|----x-----x-x---|
a-|5---------------5---------------|2---------------2---------------|2---------------|
E-|--------------------------------|--------------------------------|----------------|
   ^ ' ' ' ^ ' ' ' ^ ' ' ' ^ ' ' ' |^ ' ' ' ^ ' ' ' ^ ' ' ' ^ ' ' ' |^ ' ' ' ^ ' ' ' |
   1       2       3       4        1       2       3       4        1       2        
   take                          me out                    would you like to start a  

[CHORUS 1]

e-|------------------------|----0-----0-0-------0-----0-0---|----0-----0-0---|
a-|------------------------|----0-----0-0-------0-----0-0---|----0-----0-0---|
e-|----0-------0-----------|----0-----0-0-------0-----0-0---|----0-----0-0---|
c#|----0-------0-----------|----0-----0-0-------0-----0-0---|----0-----0-0---|
a-|------------------------|--------------------------------|----------------|
E-|2-------4-------5---4---|0---------------0---------------|0---------------|
   ^ ' ' ' ^ ' ' ' ^ ' ' ' |^ ' ' ' ^ ' ' ' ^ ' ' ' ^ ' ' ' |^ ' ' ' ^ ' ' ' |
   1       2       3        1       2       3       4        1       2        
   river                                                 and ride it like a

e-|----0-----0-0-------0-----0-0---|----0-----0-0-------0-----0-0---|----0-----0-0---|
a-|----0-----0-0-------0-----0-0---|----0-----0-0-------0-----0-0---|----0-----0-0---|
e-|----5-----5-5-------5-----5-5---|----2-----2-2-------2-----2-2---|----2-----2-2---|
c#|----x-----x-x-------x-----x-x---|----x-----x-x-------x-----x-x---|----x-----x-x---|
a-|5---------------5---------------|2---------------2---------------|2---------------|
E-|--------------------------------|--------------------------------|----------------|
   ^ ' ' ' ^ ' ' ' ^ ' ' ' ^ ' ' ' |^ ' ' ' ^ ' ' ' ^ ' ' ' ^ ' ' ' |^ ' ' ' ^ ' ' ' |
   1       2       3       4        1       2       3       4        1       2        
   painted         carousel                                 our life savings aren't

e-|------------------------|----0-----0-0-------0-----0-0---|
a-|------------------------|----0-----0-0-------0-----0-0---|
e-|----0-------0-----------|----0-----0-0-------0-----0-0---|
c#|----0-------0-----------|----0-----0-0-------0-----0-0---|
a-|------------------------|--------------------------------|
E-|2-------4-------5---4---|0---------------0---------------|
   ^ ' ' ' ^ ' ' ' ^ ' ' ' |^ ' ' ' ^ ' ' ' ^ ' ' ' ^ ' ' ' |
   1       2       3        1       2       3       4        
   enough                     we'll have to lobby hard and 

e-|----0-----0-0-------0-----0-0---|----0-----0-0-------0-----0-0---|----0-----0-0-------0-----0-0---|
a-|----0-----0-0-------0-----0-0---|----0-----0-0-------0-----0-0---|----0-----0-0-------0-----0-0---|
e-|----5-----5-5-------5-----5-5---|----2-----2-2-------2-----2-2---|----2-----2-2-------2-----2-2---|
c#|----x-----x-x-------x-----x-x---|----x-----x-x-------x-----x-x---|----x-----x-x-------x-----x-x---|
a-|5---------------5---------------|2---------------2---------------|2---------------2---------------|
E-|--------------------------------|--------------------------------|--------------------------------|
   ^ ' ' ' ^ ' ' ' ^ ' ' ' ^ ' ' ' |^ ' ' ' ^ ' ' ' ^ ' ' ' ^ ' ' ' |^ ' ' ' ^ ' ' ' ^ ' ' ' ^ ' ' ' |
   1       2       3       4        1       2       3       4        1       2       3       4        
   make it up              make it  up                                                       super

[VERSE 2]

e-|----0-----0-0-------0-----0-0---|----0-----0-0-------0-----0-0---|
a-|----0-----0-0-------0-----0-0---|----0-----0-0-------0-----0-0---|
e-|----0-----0-0-------0-----0-0---|----0-----0-0-------0-----0-0---|
c#|----0-----0-0-------0-----0-0---|----0-----0-0-------0-----0-0---|
a-|--------------------------------|--------------------------------|
E-|2---------------2---------------|0---------------0---------------|
   ^ ' ' ' ^ ' ' ' ^ ' ' ' ^ ' ' ' |^ ' ' ' ^ ' ' ' ^ ' ' ' ^ ' ' ' |
   1       2       3       4        1       2       3       4        
   moon                          we never           used to

e-|----0-----0-0-------0-----0-0---|----0-----0-0-------0-----0-0---|
a-|----0-----0-0-------0-----0-0---|----0-----0-0-------0-----0-0---|
e-|----5-----5-5-------5-----5-5---|----2-----2-2-------2-----2-2---|
c#|----x-----x-x-------x-----x-x---|----x-----x-x-------x-----x-x---|
a-|5---------------5---------------|2---------------2---------------|
E-|--------------------------------|--------------------------------|
   ^ ' ' ' ^ ' ' ' ^ ' ' ' ^ ' ' ' |^ ' ' ' ^ ' ' ' ^ ' ' ' ^ ' ' ' |
   1       2       3       4        1       2       3       4        
   live                        this long

e-|----0-----0-0-------0-----0-0---|----0-----0-0-------0-----0-0---|
a-|----0-----0-0-------0-----0-0---|----0-----0-0-------0-----0-0---|
e-|----0-----0-0-------0-----0-0---|----0-----0-0-------0-----0-0---|
c#|----0-----0-0-------0-----0-0---|----0-----0-0-------0-----0-0---|
a-|--------------------------------|--------------------------------|
E-|2---------------2---------------|0---------------0---------------|
   ^ ' ' ' ^ ' ' ' ^ ' ' ' ^ ' ' ' |^ ' ' ' ^ ' ' ' ^ ' ' ' ^ ' ' ' |
   1       2       3       4        1       2       3       4        
     we're pioneers     my dear              pioneers we're pressing

e-|----0-----0-0-------0-----0-0---|----0-----0-0-------0-----0-0---|
a-|----0-----0-0-------0-----0-0---|----0-----0-0-------0-----0-0---|
e-|----5-----5-5-------5-----5-5---|----2-----2-2-------2-----2-2---|
c#|----x-----x-x-------x-----x-x---|----x-----x-x-------x-----x-x---|
a-|5---------------5---------------|2---------------2---------------|
E-|--------------------------------|--------------------------------|
   ^ ' ' ' ^ ' ' ' ^ ' ' ' ^ ' ' ' |^ ' ' ' ^ ' ' ' ^ ' ' ' ^ ' ' ' |
   1       2       3       4        1       2       3       4        
   on move along                                         and if my

e-|----0-----0-0-------0-----0-0---|----0-----0-0-------0-----0-0---|
a-|----0-----0-0-------0-----0-0---|----0-----0-0-------0-----0-0---|
e-|----0-----0-0-------0-----0-0---|----0-----0-0-------0-----0-0---|
c#|----0-----0-0-------0-----0-0---|----0-----0-0-------0-----0-0---|
a-|--------------------------------|--------------------------------|
E-|2---------------2---------------|0---------------0---------------|
   ^ ' ' ' ^ ' ' ' ^ ' ' ' ^ ' ' ' |^ ' ' ' ^ ' ' ' ^ ' ' ' ^ ' ' ' |
   1       2       3       4        1       2       3       4        
   smile                      seems straight as the tropic of

e-|----0-----0-0-------0-----0-0---|----0-----0-0-------0-----0-0---|
a-|----0-----0-0-------0-----0-0---|----0-----0-0-------0-----0-0---|
e-|----5-----5-5-------5-----5-5---|----2-----2-2-------2-----2-2---|
c#|----x-----x-x-------x-----x-x---|----x-----x-x-------x-----x-x---|
a-|5---------------5---------------|2---------------2---------------|
E-|--------------------------------|--------------------------------|
   ^ ' ' ' ^ ' ' ' ^ ' ' ' ^ ' ' ' |^ ' ' ' ^ ' ' ' ^ ' ' ' ^ ' ' ' |
   1       2       3       4        1       2       3       4        
   cancer it's because

e-|----0-----0-0-------0-----0-0---|----0-----0-0-------0-----0-0---|
a-|----0-----0-0-------0-----0-0---|----0-----0-0-------0-----0-0---|
e-|----0-----0-0-------0-----0-0---|----0-----0-0-------0-----0-0---|
c#|----0-----0-0-------0-----0-0---|----0-----0-0-------0-----0-0---|
a-|--------------------------------|--------------------------------|
E-|2---------------2---------------|0---------------0---------------|
   ^ ' ' ' ^ ' ' ' ^ ' ' ' ^ ' ' ' |^ ' ' ' ^ ' ' ' ^ ' ' ' ^ ' ' ' |
   1       2       3       4        1       2       3       4        
   nature isn't magic                  it's just a mystery to us
 
e-|----0-----0-0-------0-----0-0---|----0-----0-0-------0-----0-0---|----0-----0-0---|
a-|----0-----0-0-------0-----0-0---|----0-----0-0-------0-----0-0---|----0-----0-0---|
e-|----5-----5-5-------5-----5-5---|----2-----2-2-------2-----2-2---|----2-----2-2---|
c#|----x-----x-x-------x-----x-x---|----x-----x-x-------x-----x-x---|----x-----x-x---|
a-|5---------------5---------------|2---------------2---------------|2---------------|
E-|--------------------------------|--------------------------------|----------------|
   ^ ' ' ' ^ ' ' ' ^ ' ' ' ^ ' ' ' |^ ' ' ' ^ ' ' ' ^ ' ' ' ^ ' ' ' |^ ' ' ' ^ ' ' ' |
   1       2       3       4        1       2       3       4        1       2        
                                                           would you like to start a
[CHORUS 2]

e-|------------------------|----0-----0-0-------0-----0-0---|----0-----0-0---|
a-|------------------------|----0-----0-0-------0-----0-0---|----0-----0-0---|
e-|----0-------0-----------|----0-----0-0-------0-----0-0---|----0-----0-0---|
c#|----0-------0-----------|----0-----0-0-------0-----0-0---|----0-----0-0---|
a-|------------------------|--------------------------------|----------------|
E-|2-------4-------5---4---|0---------------0---------------|0---------------|
   ^ ' ' ' ^ ' ' ' ^ ' ' ' |^ ' ' ' ^ ' ' ' ^ ' ' ' ^ ' ' ' |^ ' ' ' ^ ' ' ' |
   1       2       3        1       2       3       4        1       2        
   river                                                 and ride it like a

e-|----0-----0-0-------0-----0-0---|----0-----0-0-------0-----0-0---|----0-----0-0---|
a-|----0-----0-0-------0-----0-0---|----0-----0-0-------0-----0-0---|----0-----0-0---|
e-|----5-----5-5-------5-----5-5---|----2-----2-2-------2-----2-2---|----2-----2-2---|
c#|----x-----x-x-------x-----x-x---|----x-----x-x-------x-----x-x---|----x-----x-x---|
a-|5---------------5---------------|2---------------2---------------|2---------------|
E-|--------------------------------|--------------------------------|----------------|
   ^ ' ' ' ^ ' ' ' ^ ' ' ' ^ ' ' ' |^ ' ' ' ^ ' ' ' ^ ' ' ' ^ ' ' ' |^ ' ' ' ^ ' ' ' 
   1       2       3       4        1       2       3       4        1       2        
   painted         carousel                                 our life savings aren't

e-|------------------------|----0-----0-0-------0-----0-0---|
a-|------------------------|----0-----0-0-------0-----0-0---|
e-|----0-------0-----------|----0-----0-0-------0-----0-0---|
c#|----0-------0-----------|----0-----0-0-------0-----0-0---|
a-|------------------------|--------------------------------|
E-|2-------4-------5---4---|0---------------0---------------|
   ^ ' ' ' ^ ' ' ' ^ ' ' ' |^ ' ' ' ^ ' ' ' ^ ' ' ' ^ ' ' ' |
   1       2       3        1       2       3       4        
   enough                     we'll have to lobby hard and 

e-|----0-----0-0-------0-----0-0---|----0-----0-0-------0-----0-0---|----0-----0-0-------0-----0-0---|
a-|----0-----0-0-------0-----0-0---|----0-----0-0-------0-----0-0---|----0-----0-0-------0-----0-0---|
e-|----5-----5-5-------5-----5-5---|----2-----2-2-------2-----2-2---|----2-----2-2-------2-----2-2---|
c#|----x-----x-x-------x-----x-x---|----x-----x-x-------x-----x-x---|----x-----x-x-------x-----x-x---|
a-|5---------------5---------------|2---------------2---------------|2---------------2---------------|
E-|--------------------------------|--------------------------------|--------------------------------|
   ^ ' ' ' ^ ' ' ' ^ ' ' ' ^ ' ' ' |^ ' ' ' ^ ' ' ' ^ ' ' ' ^ ' ' ' |^ ' ' ' ^ ' ' ' ^ ' ' ' ^ ' ' ' |
   1       2       3       4        1       2       3       4        1       2       3       4        
   make it up              make it  up

[BRIDGE]

e-|----0-----0-0-------0-----0-0---|----0-----0-0-------0-----0-0---|
a-|----0-----0-0-------0-----0-0---|----0-----0-0-------0-----0-0---|
e-|----0-----0-0-------0-----0-0---|----4-----4-4-------4-----4-4---|
c#|----0-----0-0-------0-----0-0---|----0-----0-0-------0-----0-0---|
a-|--------------------------------|4---------------4---------------|
E-|2---------------2---------------|--------------------------------|
   ^ ' ' ' ^ ' ' ' ^ ' ' ' ^ ' ' ' |^ ' ' ' ^ ' ' ' ^ ' ' ' ^ ' ' ' |
   1       2       3       4        1       2       3       4        

e-|----0-----0-0-------0-----0-0---|----0-----0-0-------0-----0-0---|
a-|----0-----0-0-------0-----0-0---|----0-----0-0-------0-----0-0---|
e-|----5-----5-5-------5-----5-5---|----5-----5-5-------5-----5-5---|
c#|----x-----x-x-------x-----x-x---|----x-----x-x-------x-----x-x---|
a-|5---------------5---------------|6---------------6---------------|
E-|--------------------------------|--------------------------------|
   ^ ' ' ' ^ ' ' ' ^ ' ' ' ^ ' ' ' |^ ' ' ' ^ ' ' ' ^ ' ' ' ^ ' ' ' |

e-|----0-----0-0-------0-----0-0---|----0-----0-0-------0-----0-0---|
a-|----0-----0-0-------0-----0-0---|----0-----0-0-------0-----0-0---|
e-|----0-----0-0-------0-----0-0---|----4-----4-4-------4-----4-4---|
c#|----0-----0-0-------0-----0-0---|----0-----0-0-------0-----0-0---|
a-|--------------------------------|4---------------4---------------|
E-|2---------------2---------------|--------------------------------|
   ^ ' ' ' ^ ' ' ' ^ ' ' ' ^ ' ' ' |^ ' ' ' ^ ' ' ' ^ ' ' ' ^ ' ' ' |
   1       2       3       4        1       2       3       4        

e-|----0-----0-0-------0-----0-0---|----0-----0-0-------0-----0-0---|
a-|----0-----0-0-------0-----0-0---|----0-----0-0-------0-----0-0---|
e-|----5-----5-5-------5-----5-5---|----5-----5-5-------5-----5-5---|
c#|----x-----x-x-------x-----x-x---|----x-----x-x-------x-----x-x---|
a-|5---------------5---------------|6---------------6---------------|
E-|--------------------------------|--------------------------------|
   ^ ' ' ' ^ ' ' ' ^ ' ' ' ^ ' ' ' |^ ' ' ' ^ ' ' ' ^ ' ' ' ^ ' ' ' |

e-|----0-----0-0-------0-----0-0---|----0-----0-0-------0-----0-0---|
a-|----0-----0-0-------0-----0-0---|----0-----0-0-------0-----0-0---|
e-|----0-----0-0-------0-----0-0---|----4-----4-4-------4-----4-4---|
c#|----0-----0-0-------0-----0-0---|----0-----0-0-------0-----0-0---|
a-|--------------------------------|4---------------4---------------|
E-|2---------------2---------------|--------------------------------|
   ^ ' ' ' ^ ' ' ' ^ ' ' ' ^ ' ' ' |^ ' ' ' ^ ' ' ' ^ ' ' ' ^ ' ' ' |
   1       2       3       4        1       2       3       4        
   tell me if you feel it and we'll mine it to reveal it from the

e-|----0-----0-0-------0-----0-0---|----0-----0-0-------0-----0-0---|
a-|----0-----0-0-------0-----0-0---|----0-----0-0-------0-----0-0---|
e-|----5-----5-5-------5-----5-5---|----5-----5-5-------5-----5-5---|
c#|----x-----x-x-------x-----x-x---|----x-----x-x-------x-----x-x---|
a-|5---------------5---------------|6---------------6---------------|
E-|--------------------------------|--------------------------------|
   ^ ' ' ' ^ ' ' ' ^ ' ' ' ^ ' ' ' |^ ' ' ' ^ ' ' ' ^ ' ' ' ^ ' ' ' |
   dams up to the turbines

e-|----0-----0-0-------0-----0-0---|----0-----0-0-------0-----0-0---|
a-|----0-----0-0-------0-----0-0---|----0-----0-0-------0-----0-0---|
e-|----0-----0-0-------0-----0-0---|----4-----4-4-------4-----4-4---|
c#|----0-----0-0-------0-----0-0---|----0-----0-0-------0-----0-0---|
a-|--------------------------------|4---------------4---------------|
E-|2---------------2---------------|--------------------------------|
   ^ ' ' ' ^ ' ' ' ^ ' ' ' ^ ' ' ' |^ ' ' ' ^ ' ' ' ^ ' ' ' ^ ' ' ' |
   1       2       3       4        1       2       3       4        
   tell me if you feel it and we'll mine it to reveal it from the

e-|----0-----0-0-------0-----0-0---|----0-----0-0-------0-----0-0---|
a-|----0-----0-0-------0-----0-0---|----0-----0-0-------0-----0-0---|
e-|----5-----5-5-------5-----5-5---|----5-----5-5-------5-----5-5---|
c#|----x-----x-x-------x-----x-x---|----x-----x-x-------x-----x-x---|
a-|5---------------5---------------|6---------------6---------------|
E-|--------------------------------|--------------------------------|
   ^ ' ' ' ^ ' ' ' ^ ' ' ' ^ ' ' ' |^ ' ' ' ^ ' ' ' ^ ' ' ' ^ ' ' ' |
   1       2       3       4        1       2       3       4        
   dams up to the turbines we're running much too hard


e-|----0-----0-0-------0-----0-0---|----0-----0-0-------0-----0-0---|
a-|----0-----0-0-------0-----0-0---|----0-----0-0-------0-----0-0---|
e-|----5-----5-5-------5-----5-5---|----0-----0-0-------0-----0-0---|
c#|----x-----x-x-------x-----x-x---|----0-----0-0-------0-----0-0---|
a-|6---------------6---------------|--------------------------------|
E-|--------------------------------|2---------------2---------------|
   ^ ' ' ' ^ ' ' ' ^ ' ' ' ^ ' ' ' |^ ' ' ' ^ ' ' ' ^ ' ' ' ^ ' ' ' |
   1       2       3       4        1       2       3       4        
                           to       meter

[INTERLUDE]

e-|------------------------|----0-----0-0-------0-----0-0---|----0-----0-0-------0-----0-0---|
a-|------------------------|----0-----0-0-------0-----0-0---|----0-----0-0-------0-----0-0---|
e-|----0-------0-----------|----0-----0-0-------0-----0-0---|----0-----0-0-------0-----0-0---|
c#|----0-------0-----------|----0-----0-0-------0-----0-0---|----0-----0-0-------0-----0-0---|
a-|------------------------|--------------------------------|--------------------------------|
E-|2-------4-------5---4---|0---------------0---------------|0---------------0---------------|
   ^ ' ' ' ^ ' ' ' ^ ' ' ' |^ ' ' ' ^ ' ' ' ^ ' ' ' ^ ' ' ' |^ ' ' ' ^ ' ' ' ^ ' ' ' ^ ' ' ' |
   1       2       3        1       2       3       4        1       2       3       4        

e-|------------------------|----0-----0-0-------0-----0-0---|----0-----0-0---|
a-|------------------------|----0-----0-0-------0-----0-0---|----0-----0-0---|
e-|----0-------0-----------|----0-----0-0-------0-----0-0---|----0-----0-0---|
c#|----0-------0-----------|----0-----0-0-------0-----0-0---|----0-----0-0---|
a-|------------------------|--------------------------------|----------------|
E-|2-------4-------5---4---|0---------------0---------------|0---------------|
   ^ ' ' ' ^ ' ' ' ^ ' ' ' |^ ' ' ' ^ ' ' ' ^ ' ' ' ^ ' ' ' |^ ' ' ' ^ ' ' ' |
   1       2       3        1       2       3       4        1       2        

e-|----0-----0-0-------0-----0-0---|----0-----0-0-------0-----0-0---|----0-----0-0-------0-----0-0---|
a-|----0-----0-0-------0-----0-0---|----0-----0-0-------0-----0-0---|----0-----0-0-------0-----0-0---|
e-|----5-----5-5-------5-----5-5---|----2-----2-2-------2-----2-2---|----2-----2-2-------2-----2-2---|
c#|----x-----x-x-------x-----x-x---|----x-----x-x-------x-----x-x---|----x-----x-x-------x-----x-x---|
a-|5---------------5---------------|2---------------2---------------|2---------------2---------------|
E-|--------------------------------|--------------------------------|--------------------------------|
   ^ ' ' ' ^ ' ' ' ^ ' ' ' ^ ' ' ' |^ ' ' ' ^ ' ' ' ^ ' ' ' ^ ' ' ' |^ ' ' ' ^ ' ' ' ^ ' ' ' ^ ' ' ' |
   1       2       3       4        1       2       3       4        1       2       3       4        
                                                                             would you like to start a

[CHORUS 3]

e-|------------------------|----0-----0-0-------0-----0-0---|----0-----0-0---|
a-|------------------------|----0-----0-0-------0-----0-0---|----0-----0-0---|
e-|----0-------0-----------|----0-----0-0-------0-----0-0---|----0-----0-0---|
c#|----0-------0-----------|----0-----0-0-------0-----0-0---|----0-----0-0---|
a-|------------------------|--------------------------------|----------------|
E-|2-------4-------5---4---|0---------------0---------------|0---------------|
   ^ ' ' ' ^ ' ' ' ^ ' ' ' |^ ' ' ' ^ ' ' ' ^ ' ' ' ^ ' ' ' |^ ' ' ' ^ ' ' ' |
   1       2       3        1       2       3       4        1       2        
   river                                                 and ride it like a

e-|----0-----0-0-------0-----0-0---|----0-----0-0-------0-----0-0---|----0-----0-0-------0-----0-0---|
a-|----0-----0-0-------0-----0-0---|----0-----0-0-------0-----0-0---|----0-----0-0-------0-----0-0---|
e-|----5-----5-5-------5-----5-5---|----2-----2-2-------2-----2-2---|----2-----2-2-------2-----2-2---|
c#|----x-----x-x-------x-----x-x---|----x-----x-x-------x-----x-x---|----x-----x-x-------x-----x-x---|
a-|5---------------5---------------|2---------------2---------------|2---------------2---------------|
E-|--------------------------------|--------------------------------|--------------------------------|
   ^ ' ' ' ^ ' ' ' ^ ' ' ' ^ ' ' ' |^ ' ' ' ^ ' ' ' ^ ' ' ' ^ ' ' ' |^ ' ' ' ^ ' ' ' ^ ' ' ' ^ ' ' ' |
   1       2       3       4        1       2       3       4        1       2       3       4        
   painted         carousel                                                  would you like to start a

e-|------------------------|----0-----0-0-------0-----0-0---|----0-----0-0---|
a-|------------------------|----0-----0-0-------0-----0-0---|----0-----0-0---|
e-|----0-------0-----------|----0-----0-0-------0-----0-0---|----0-----0-0---|
c#|----0-------0-----------|----0-----0-0-------0-----0-0---|----0-----0-0---|
a-|------------------------|--------------------------------|----------------|
E-|2-------4-------5---4---|0---------------0---------------|0---------------|
   ^ ' ' ' ^ ' ' ' ^ ' ' ' |^ ' ' ' ^ ' ' ' ^ ' ' ' ^ ' ' ' |^ ' ' ' ^ ' ' ' |
   1       2       3        1       2       3       4        1       2        
   river                                                 and ride it like a

e-|----0-----0-0-------0-----0-0---|----0-----0-0-------0-----0-0---|----0-----0-0-------0-----0-0---|
a-|----0-----0-0-------0-----0-0---|----0-----0-0-------0-----0-0---|----0-----0-0-------0-----0-0---|
e-|----5-----5-5-------5-----5-5---|----2-----2-2-------2-----2-2---|----2-----2-2-------2-----2-2---|
c#|----x-----x-x-------x-----x-x---|----x-----x-x-------x-----x-x---|----x-----x-x-------x-----x-x---|
a-|5---------------5---------------|2---------------2---------------|2---------------2---------------|
E-|--------------------------------|--------------------------------|--------------------------------|
   ^ ' ' ' ^ ' ' ' ^ ' ' ' ^ ' ' ' |^ ' ' ' ^ ' ' ' ^ ' ' ' ^ ' ' ' |^ ' ' ' ^ ' ' ' ^ ' ' ' ^ ' ' ' |
   1       2       3       4        1       2       3       4        1       2       3       4        
   painted         carousel                                                  would you like to start a

e-|------------------------|----0-----0-0-------0-----0-0---|----0-----0-0---|
a-|------------------------|----0-----0-0-------0-----0-0---|----0-----0-0---|
e-|----0-------0-----------|----0-----0-0-------0-----0-0---|----0-----0-0---|
c#|----0-------0-----------|----0-----0-0-------0-----0-0---|----0-----0-0---|
a-|------------------------|--------------------------------|----------------|
E-|2-------4-------5---4---|0---------------0---------------|0---------------|
   ^ ' ' ' ^ ' ' ' ^ ' ' ' |^ ' ' ' ^ ' ' ' ^ ' ' ' ^ ' ' ' |^ ' ' ' ^ ' ' ' |
   1       2       3        1       2       3       4        1       2        
   river                                                 and ride it like a

e-|----0-----0-0-------0-----0-0---|----0-----0-0-------0-----0-0---|----0-----0-0---0---------------|
a-|----0-----0-0-------0-----0-0---|----0-----0-0-------0-----0-0---|----0-----0-0---0---------------|
e-|----5-----5-5-------5-----5-5---|----2-----2-2-------2-----2-2---|----2-----2-2---2---------------|
c#|----x-----x-x-------x-----x-x---|----x-----x-x-------x-----x-x---|----x-----x-x---x---------------|
a-|5---------------5---------------|2---------------2---------------|2---------------2---------------|
E-|--------------------------------|--------------------------------|--------------------------------|
   ^ ' ' ' ^ ' ' ' ^ ' ' ' ^ ' ' ' |^ ' ' ' ^ ' ' ' ^ ' ' ' ^ ' ' ' |^ ' ' ' ^ ' ' ' ^ ' ' ' ^ ' ' ' |
   1       2       3       4        1       2       3       4        1       2       3       4        
   painted         carousel                                                  



***********************************
| x   deadnote
***********************************
Suggest correction
Give kudos to tab author, rate the tab!
1 2 3 4 5
comments
print report bad tab
guest
You may want to rate the tab now too:
select rating
Wanna post a correction for this tab? Suggest correction