Oops, an error
Loading. Please wait.

Any Port In A Storm Tab

989 views 1 this week
no commentswrite comment
1 2 3 4 5
2 more votes to show rating
add to favorites
launch autoscroll
font size
0
reset
how to read this tab
guitar tuner
Autoscroll
slow
fast
+/-
esc
set tempo
stop
Help us to improve Ultimate-Guitar.com Take our survey!
×
Author
Difficulty
Tuning
intermediate
D A D G B E
Artist - Casey Jones
Song - Any Port in a Storm
Album - The Messenger
Label - Eulogy Recordings 2006
Tuning - Drop D DADGBE

~ - Let Ring

Guitar 1
-------------------------------------------------------|
-------------------------------------------------------|
-5-------3------8-------3------------------------------|
-5--x24--3--x8--8--x24--3--x5--------------------------|
-3-------1------6-------1------------------------------|
-------------------------------------------------------|

Both Guitars
-------------------------------------------------------|
-------------------------------------------------------|
-5-------3------8-------3------------------------------|
-5--x24--3--x8--8--x24--3--x8---------x2---------------|
-3-------1------6-------1------------------------------|
-------------------------------------------------------|

Guitar 1
-------------------------------------------------------|
-------------------------------------------------------|
-5-------3------8-------3~-----------------------------|
-5--x24--3--x8--8--x24--3~--x8-------------------------|
-3-------1------6-------1~-----------------------------|
-------------------------------------------------------|

Guitar 2
------------------------------------------------------------------|
------------------------------------------------------------------|
-14/15--12-12-12-----10-12---11/12--8-8-8---10-10-10----10-10-10~-|
-----------------x3----------------------x3-----------x2----------|
-12/13--10-10-10-----8--10---9-/10--6-6-6---8--8--8-----8--8--8~--|
------------------------------------------------------------------|

-------------------------------------------------------|
-------------------------------------------------------|
-5--------------8-8------5------------8-8--------------|
-5--x8--6-6-8---8-8-8----5--x8-6------6-6-x4-----------|
-3------6-6--8--6-6--8---3-----6-x4---6-6--------------|
--------6-6--------------------6-----------------------|

Guitar 2 only
-------------------------------------------------------|
-------------------------------------------------------|
-12----------------------------------------------------|
-----x32-----------------------------------------------|
-10----------------------------------------------------|
-------------------------------------------------------|


-------------------------------------------------------|
-------------------------------------------------------|
-----------------------10-8-12-8-----------------------|
-6--------------6--------------------------------------|
-6--x8--(pause)-6--x8--8--6-10-6-----------------------|
-6--------------6--------------------------------------|

-------------------------------------------------------|
-------------------------------------------------------|
-----------------------12----10------------------------|
-6--------------6---------x7---------------------------|
-6--x8--(pause)-6--x8--10----8-------------------------|
-6--------------6--------------------------------------|


-------------------------------------------------------|
-------------------------------------------------------|
-5--------------8-8------5------------8----------------|
-5--x8--6-6-8---8-8-8----5--x8-6------6-x4-------------|
-3------6-6--8--6-6--8---3-----6-x4---6----------------|
--------6-6--------------------6-----------------------|


Guitar 2 only
-------------------------------------------------------|
-------------------------------------------------------|
-12----------------------------------------------------|
-----x32-----------------------------------------------|
-10----------------------------------------------------|
-------------------------------------------------------|


-------------------------------------------------------|
-------------------------------------------------------|
-----------------------10-8-12-8-----------------------|
-6--------------6--------------------------------------|
-6--x8--(pause)-6--x8--8--6-10-6-----------------------|
-6--------------6--------------------------------------|

-------------------------------------------------------|
-------------------------------------------------------|
-----------------------12----10------------------------|
-6--------------6---------x7---------------------------|
-6--x8--(pause)-6--x8--10----8-------------------------|
-6--------------6--------------------------------------|

-------------------------------------------------------|
-------------------------------------------------------|
-5~----------------------------------------------------|
-5~----------------------------------------------------|
-3~----------------------------------------------------|
-------------------------------------------------------|

-------------------------------------------------------|
-------------------------------------------------------|
-5------3------8-------3~------------------------------|
-5--x13-3--x3--8--x13--3~--x3-----x3-------------------|
-3------1------6-------1~------------------------------|
-------------------------------------------------------|

This album officially drops tomorrow.
Go buy it, it owns.
Suggest correction
Give kudos to tab author, rate the tab!
1 2 3 4 5
comments
print report bad tab
guest
You may want to rate the tab now too:
select rating
Wanna post a correction for this tab? Suggest correction