Oops, an error
Loading. Please wait.

Bite The Dust Tab

976 views 1 this week
1 commentread comment
1 2 3 4 5
please rate
add to favorites
launch autoscroll
font size
0
reset
how to read this tab
guitar tuner
Autoscroll
slow
fast
+/-
esc
set tempo
stop
Help us to improve Ultimate-Guitar.com Take our survey!
×
Song: Bite The Dust
Artist: Casey Jones
Album: The Messenger

Tabbed by: garyhann
Email: garyhann@live.co.uk

Tuning: Drop D

Straight Edge Hardcore = :D


  0:00
e|----------------------------------------------------------------|
B|----------------------------------------------------------------|
G|----------------------------7^8^7-------------------------------|
D|--0~----------------4/6~-----------0~----------------4/6~----6--|
A|--0~-------------------------------0~------------------------6--|
D|--0~----------------4/6~-----------0~----------------4/6~----6--|

  0:20
e|----------------------------------------------------------|
B|----------------------------------------------------------|
G|---------------------1010-1099----------------------------|
D|--000000000000000000-----------888888888888-777777777777--|
A|--000000000000000000-8-8--8-77-888888888888-555555555555--|
D|--000000000000000000-----------888888888888-555555555555--|

  0:30
e|--------------------------------------------------------|
B|--------------------------------------------------------|
G|---------------------1010-1099--------------------------|
D|--000000000000000000-----------888888888888-777777-7-7--|
A|--000000000000000000-8-8--8-77-888888888888-555555-5-5--|
D|--000000000000000000-----------888888888888-555555-5-5--|

  0:40           0:43                  0:50
e|-------------||--------------------||--------------------------------------------|
B|-------------||--------------------||--------------------------------------------|
G|-------------||--------------[x2]--||--------------------------------------------|
D|--0-0--------||--000-066-0-0-------||--000-066-0-00000000000000------------------|
A|--0-0--------||--000-066-0-0-------||--000-066-0-00000000000000------------------|
D|--0-0--------||--000-066-0-0-------||--000-066-0-00000000000000------------------|
                                                   ..............

  0:55                           1:04
e|-----------------------------||---------------------------------------|
B|-----------------------------||---------------------------------------|
G|-----------------------[x2]--||---------------------------------------|
D|--0-0--------000-066-0-------||--0-0--------000-066-0-00000000000000--|
A|--0-0--------000-066-0-------||--0-0--------000-066-0-00000000000000--|
D|--0-0--------000-066-0-------||--0-0--------000-066-0-00000000000000--|
                                                        ..............

  1:08                                            1:14
e|----------------------------------------------||-------------------------------|
B|----------------------------------------------||-------------------------------|
G|----------------------------------------------||-------------------------[x6]--|
D|--0----0----0----0-66-55-0----0----0----0--6--||--0----0----0----0-66-55-------|
A|--0----0----0----0-------0----0----0----0--6--||--0----0----0----0-------------|
D|--0-00-0-00-0-00-0-66-55-0-00-0-00-0-00-0--6--||--0-00-0-00-0-00-0-66-55-------|
      ..   ..   ..           ..   ..   ..

  1:21  BU       BU          BU BD            BU       BD
e|-----------10------------------------------------10--------------15-15-15-15-15-15-15--|
B|------9^10----10^9-8-6---6-8^10^8-6h8p6---6-9^10----10^9-8-6---6-15-15-15-15-15-15-15--|
G|-----------------------7----------------7--------------------7-------------------------|
D|---------------------------------------------------------------------------------------|
A|---------------------------------------------------------------------------------------|
D|---------------------------------------------------------------------------------------|

Suggest correction
Give kudos to tab author, rate the tab!
1 2 3 4 5
comments
print report bad tab
1 comment total.
0 reply
xKnifekillerx 383 wrote on May 8 2009, 07:56 pm

Great tab, but some parts in the outro seem abit off, but is fine. 5star.

guest
You may want to rate the tab now too:
select rating
Please do not post tabs as comments. Select "correction" instead!