Oops, an error
Loading. Please wait.

Nothing To Lose Bass Tab

333 views 1 this week
no commentswrite comment
1 2 3 4 5
3 more votes to show rating
add to favorites
launch autoscroll
font size
0
reset
guitar tuner
Autoscroll
slow
fast
+/-
esc
set tempo
stop
Help us to improve Ultimate-Guitar.com Take our survey!
×
Difficulty
novice
|-------|  |---|-----|---------------------------------------------------|
|-------|  |---|-----|---------------------------------------------------|
|-------|x2|---|-333-|----------333-1--------444------------333-1----444-|
|--00-0-|  |-3-|-----|-00-0-0000-----3-555-------00-0-0000------6--------|
                                          
|----------------------------------------------------------|
|----------------------------------------------------------|
|----------------------------------------------------------|
|--0~----00-000-0~--------0~----00-000-0~----10-10-10-8-8--|

|---------------------|  |-------------------|  |------------------|
|---------------------|x4|-------------------|x3|------------------|
|------222----442242--|  |-------------------|  |------------------|
|--000-----0000-------|  |--0006660000886666-|  |---000666000088---|

|----------------------------------------------------------------------------------|
|----------------------------------------------------------------------------------|
|----------------------------------------------------------------------------------|
|--666666666666355-0-00-000-10-1010-101010-666666666666355-0-0-0-0-10-1010-101010--|
                                                              
|-----------------------------------|
|-----------------------------------|
|------------333-1---------444------|
|--00-0-0000-------3-5~--------3-5--|

that's all. i think this is pretty close, just listen to the song for timing. 
please rate. comments!
Suggest correction
Give kudos to tab author, rate the tab!
1 2 3 4 5
comments
print report bad tab
guest
You may want to rate the tab now too:
select rating
Wanna post a correction for this tab? Suggest correction