Oops, an error
Loading. Please wait.

Nothing To Lose Tab

828 views 1 this week
no commentswrite comment
1 2 3 4 5
2 more votes to show rating
add to favorites
launch autoscroll
font size
0
reset
how to read this tab
guitar tuner
Autoscroll
slow
fast
+/-
esc
set tempo
stop
Help us to improve Ultimate-Guitar.com Take our survey!
×
Song: Nothing To Lose
Artist: Casey Jones
Album: The Messenger

Tabbed by: garyhann
Email: garyhann@live.co.uk

Tuning: Drop D

Straight Edge Hardcore = :D


  0:00
e|------------------------------------------------------------------|
B|-----------------------3~--------3~-------------------------------|
G|--------------------------0~--------0~-----------------------666--|
D|--00-0------555-3-3----------666-------00-0------555-3-6~---------|
A|--00-0------333-1-3-55-------444-------00-0------333-1-6~----444--|
D|--00-0-0000-------3-55-----------------00-0-0000-------6~---------|
         ....                                 ....
        
  0:18
e|----------------------------------------------------------|
B|----------------------------------------------------------|
G|----------------------------------------------------------|
D|--0~----00-000-0~--------0~----00-000-0~----10-10-10-8-8--|
A|--0~----00-000-0~--------0~----00-000-0~----10-10-10-8-8--|
D|--0~----00-000-0~--------0~----00-000-0~----10-10-10-8-8--|
          .. ...                 .. ...

  0:28                                          0:41
e|------------------------------------------||-----------------------------------------|
B|--------------3~-------------------10-----||-----------------------------------------|
G|--------------2~-------------------12^14--||--------------------[x3]-----------------|
D|--[bassline]--0~----------------6---------||--0006660000886666--------0006660000886--|
A|--------------0~----------------6---------||--0006660000886666--------0006660000886--|
D|--------------0~----------------6---------||--0006660000886666--------0006660000886--|

  0:54
e|----------------------------------------------------------------------------------|
B|----------------------------------------------------------------------------------|
G|----------------------------------------------------------------------------------|
D|--666666666666355-0-00-000-10-1010-101010-666666666666355-0-0-0-0-10-1010-101010--|
A|--666666666666355-0-00-000-10-1010-101010-666666666666355-0-0-0-0-10-1010-101010--|
D|--666666666666355-0-00-000-10-1010-101010-666666666666355-0-0-0-0-10-1010-101010--|
                                                              .
  1:06
e|---------------------------------------------------------------------------------|
B|---------------------------------------------------------------------------------|
G|---------------------------------------------------------------------------------|
D|--666666666666355-0-00000-10-1010-101010-666666666666355-0-00000-10-1010-101010--|
A|--666666666666355-0-00000-10-1010-101010-666666666666355-0-00000-10-1010-101010--|
D|--666666666666355-0-00000-10-1010-101010-666666666666355-0-00000-10-1010-101010--|
                      .....                                  .....

  1:19
e|-----------------------------------|
B|-----------------------------------|
G|--------------------------666------|
D|--00-0------555-3-3-5~--------3-5--|
A|--00-0------333-1-3-5~----444-3-5--|
D|--00-0-0000-------3-5~--------3-5--|
         ....

Suggest correction
Give kudos to tab author, rate the tab!
1 2 3 4 5
comments
print report bad tab
guest
You may want to rate the tab now too:
select rating
Wanna post a correction for this tab? Suggest correction