Oops, an error
Loading. Please wait.

Strike Hard Tab

2,175 views 1 this week
1 commentread comment
1 2 3 4 5
please rate
add to favorites
launch autoscroll
font size
0
reset
how to read this tab
guitar tuner
Autoscroll
slow
fast
+/-
esc
set tempo
stop
Help us to improve Ultimate-Guitar.com Take our survey!
×
Author
Difficulty
intermediate
Song - Strike Hard
Band - Casey Jones
Album - The Few, The Proud, The Crucial
Released on Indianola Records, now signed to Eulogy Records
Tuning - Drop D, D A D G B e

------------------------------------------------------------------|
------------------------------------------------------------------|
-7-7-7-10-10-10------------10-10-10-10----------------------------|
-7-7-7-10-10-10-(x2)-8-8-8-10-10-10-10(x2)------------------------|
-5-5-5-8--8--8-------8-8-8-8--8--8--8-----------------------------|
---------------------8-8-8----------------------------------------|

-------------------------------------------------------------------|
-------------------------------------------------------------------|
-12-12-12-12-10-10-10-9-9-9-9-9/10-7-7-7-7-7-7-7-7-----------------|
-12-12-12-12-10-10-10-9-9-9-9-9/10-7-7-7-7-7-7-7-7-8-8-8-8-8-8-8-8-|
-10-10-10-10-8--8--8--7-7-7-7-7/8--5-5-5-5-5-5-5-5-8-8-8-8-8-8-8-8-|
---------------------------------------------------8-8-8-8-8-8-8-8-|
do first part (above) twice


-----------------------------------------------------------|
-----------------------------------------------------------|
-----------------------------------------------------------|
-0--0-0-0-0-0-0-0-0-0-0-0-0-0-1-1-1-1-1-1-1-1-1-1-1-1-1-1--|
-0--0-0-0-0-0-0-0-0-0-0-0-0-0-1-1-1-1-1-1-1-1-1-1-1-1-1-1--|
-0--0-0-0-0-0-0-0-0-0-0-0-0-0-1-1-1-1-1-1-1-1-1-1-1-1-1-1--|
    . . . . . . . . . . . . .   . . . . . . . . . . . . .
                                                                 / x2
-----------------------------------------------------------------|     /
-----------------------------------------------------------------|    /
-----------------------------------------------------------------|   /
-3-3-3-3-3-3-3-2-2-2-2h3-0-0-0-2h3-0-0-0-0-0-0-0-----------------|  /
-3-3-3-3-3-3-3-2-2-2-2h3-0-0-0-2h3-0-0-0-0-0-0-0-----------------| /
-3-3-3-3-3-3-3-2-2-2-2h3-0-0-0-2h3-0-0-0-0-0-0-0-----------------|
   . . . . . .   . .       . .       . . . . . .

-------------------------------------------------------------------|
-------------------------------------------------------------------|
-7-7-7-10-10-10--------------10-10-10------------------------------|
-7-7-7-10-10-10-(x2)---8-8-8-10-10-10-(x2)-------------------------|
-5-5-5-8--8--8---------8-8-8-8--8--8-------------------------------|
-----------------------8-8-8---------------------------------------|

-------------------------------------------------------------------|
-------------------------------------------------------------------|
-12-12-12-12-10-10-10-9-9-9-9-9/10-7-7-7-7-7-7-7-7-----------------|
-12-12-12-12-10-10-10-9-9-9-9-9/10-7-7-7-7-7-7-7-7-8-8-8-8-8-8-8-8-|
-10-10-10-10-8--8--8--7-7-7-7-7/8--5-5-5-5-5-5-5-5-8-8-8-8-8-8-8-8-|
---------------------------------------------------8-8-8-8-8-8-8-8-|

-------------------------------------------------------------------|
-------------------------------------------------------------------|
-7---7~-7---7---------------7---7~-7---7---------------------------|
-7-8-7~-7-8-7-0-0-0-0-0-0-0-7-8-7~-7-8-7-0-0-2h3-------------------|
-5-8-5~-5-8-5-0-0-0-0-0-0-0-5-8-5~-5-8-5-0-0-2h3-------------------|
---8------8---0-0-0-0-0-0-0---8------8---0-0-2h3-------------------|
              . . . . . . .

-------------------------------------------------------------------|
-------------------------------------------------------------------|
-7---7---------7---7-----------------------------------------------|
-7-8-7-0-0-0-0-7-8-7-0-0-2h3----x4---------------------------------|
-5-8-5-0-0-0-0-5-8-5-0-0-2h3---------------------------------------|
---8---0-0-0-0---8---0-0-2h3---------------------------------------|
       . . . .       . .

-------------------------------------------------------------------|
-------------------------------------------------------------------|
-7-----9-----10-----12---------------------------------------------|
-7-x16-9-x16-10-x16-12-x16-----------------------------------------|
-5-----7-----8------10---------------------------------------------|
-------------------------------------------------------------------|

-------------------------------------------------------------------|
-------------------------------------------------------------------|
-7-----9-----10-----12---------------------------------------------|
-7-x16-9-x16-10-x16-12-x16-----------------------------------------|
-5-----7-----8------10---------------------------------------------|
-------------------------------------------------------------------|

-------------------------------------------------------------------|
-------------------------------------------------------------------|
-7---7-------------------------------------------------------------|
-7-8-7-0-0-0-0-----------------------------------------------------|
-5-8-5-0-0-0-0-----------------------------------------------------|
---8---0-0-0-0-----------------------------------------------------|
       . . . .
Suggest correction
Give kudos to tab author, rate the tab!
1 2 3 4 5
comments
print report bad tab
1 comment total.
0 reply
ImBarkerRarrrrr 41 wrote on November 19 2007, 05:47 pm

good tab only a few minor errors i didnt have a prob figuring them out though

guest
You may want to rate the tab now too:
select rating
Please do not post tabs as comments. Select "correction" instead!