Oops, an error
Loading. Please wait.

You Were Never A Fan Of The Dry Hump Tab

466 views 1 this week
no commentswrite comment
1 2 3 4 5
2 more votes to show rating
add to favorites
launch autoscroll
font size
0
reset
how to read this tab
guitar tuner
Autoscroll
slow
fast
+/-
esc
set tempo
stop
Help us to improve Ultimate-Guitar.com Take our survey!
×
Author
Song - You Were Never a Fan of the Dry Hump
Band - Casey Jones
Album - The Few, The Proud, The Crucial
Released on Indianola Records, but are now signed to Eulogy Records
Tuning - Drop D, D A D G B e


----------------------------------------------------------------------------|
----------------------------------------------------------------------------|
-7-7-7-7------------------2-------------------------------------------------|
-7-7-7-7-6-6-6-6-(x4)------0--(x4)-0-0-0-0-0-0-0-0-0------------------------|
-5-5-5-5-6-6-6-6-------1-1---------0-0-0-0-0-0-0-0-0--8-8-10-10-12-12-13-13-|
---------6-6-6-6-------------------0-0-0-0-0-0-0-0-0------------------------|

----------------------------------------------------------------------------|
----------------------------------------------------------------------------|
----------------------------------------------------------------------------|
-------------------------------0-0-0-0-0-0----------------------------------|
-12-12-12-12-12-12-12-12-(x2)--0-0-0-0-0-0--(x3)--10-10-10-8-8-8------------|
-------------------------------0-0-0-0-0-0----------------------------------|
                                 . . . . .

----------------------------------------------------------------------------|
----------------------------------------------------------------------------|
--------------------------------7~------------------------------------------|
-0-0-0-0-0-0-----------------0~-7~------------------------------------------|
-0-0-0-0-0-0-(x3)---6-7-6-0--0~-5~------------------------------------------|
-0-0-0-0-0-0-----------------0~---------------------------------------------|
   . . . . .

then just hit an open d chord a few times. (listen to song for timing)

----------------------------------------------------------------------------|
----------------------------------------------------------------------------|
-------------------------7-7-7-7--------------------------------------------|
-0-0-0-0-0-0-0-0-0-------7-7-7-7-------------(x4)---------------------------|
-0-0-0-0-0-0-0-0-0--(x2)-5-5-5-5--------------------------------------------|
-0-0-0-0-0-0-0-0-0----------------------------------------------------------|
       .     .

do that four times. and thats the song.
if you have any questions or corrections, my aim name is xchasegrillox
Suggest correction
Give kudos to tab author, rate the tab!
1 2 3 4 5
comments
print report bad tab
guest
You may want to rate the tab now too:
select rating
Wanna post a correction for this tab? Suggest correction