Oops, an error
Loading. Please wait.

Surrender chords

version 4
version 4

Whole song

Interactive

61 views 3 this week
no commentswrite comment
1 2 3 4 5
3 more votes to show rating
add to favorites
×
Save as Personal and add changes to this tab that will be seen only by you. Learn more ›
×
You can save this tab as Personal to edit and correct it or add notes. All changes will be seen only by you. Learn more »
launch autoscroll
font size
0
reset
transpose
0
reset
display chords
guitar tuner
edit
Autoscroll
slow
fast
+/-
esc
set tempo
stop
About this tab version
The tab is relative to the capo on 5 but is still the same key as the original song. Was this info helpful? Yes No
Strumming
There is no strumming pattern for this song yet. and get +5 IQ
[Intro]
E|-----------------------------|-----------------------------|
B|-----------------------------|--------------------1--------|
G|----------1-0-0-0-1-0--------|----------1-3-3-3-3---0-1----|
D|----3-1-3-------------3-1----|----3-1-3--------------------|
A|-----------------------------|-----------------------------|
E|-----------------------------|-----------------------------|

[Verse 1]
C     G             D        
I was running on an empty heart,
C     G            D
Not a trace of gasoline
C         G         D
Trying to dim every single spark
           Em                           D
That could hurt, that could burn all of me

[Verse 2]
C      G              D
Like a soldier on the battleground
C     G              D
Lying wounded on the field
      C          G          D
I was fighting alone with a broken sword
        Em                     D
Now I’m caught in a war with no shield

[Chorus]
   C            D                 Em
If you hold me now and leave me never,
              D               C
Say you’ll stay with me forever
     D     Em          D
Then I surrender, surrender
   C            D                 Em
If you hold me now and leave me never,
              D               C
say you’ll stay with me forever
     D       Em        D
Then I surrender, surrender

E|-----------------------------|-----------------------------|
B|-----------------------------|--------------------1--------|
G|----------1-0-0-0-1-0--------|----------1-3-3-3-3---0-1----|
D|----3-1-3-------------3-1----|----3-1-3--------------------|
A|-----------------------------|-----------------------------|
E|-----------------------------|-----------------------------|
                                          
E|-----------------------------|-----------------------------|
B|-----------------------------|--------------------1--------|
G|----------1-0-0-0-1-0--------|----------1-3-3-3-3---1-0----|
D|----3-1-3-------------3-1----|----3-1-3--------------------|
A|-----------------------------|-----------------------------|
E|-----------------------------|-----------------------------|

[Verse 3]
C            G              D
I pushed and pulled all the ones that tried,
C       G                  D
Then I watched them fade away
C         G        D
As I look around a vacant room,
        Em                   D
I see nobody left here to blame

[Verse 4]
C       G             D
Cause I made myself a prisoner
C        G               D
Shackled up by all my fears
   C           G           D
But I feel you breaking away at the walls,
          Em                    D
Make them fall make them all disappear

[Chorus]
   C            D                 Em
If you hold me now and leave me never,
              D               C
Say you’ll stay with me forever
     D     Em          D
Then I surrender, surrender
   C            D                 Em
If you hold me now and leave me never,
              D               C
say you’ll stay with me forever
     D       Em        D
Then I surrender, surrender

E|-----------------------------|-----------------------------|
B|-----------------------------|--------------------1--------|
G|----------1-0-0-0-1-0--------|----------1-3-3-3-3---0-1----|
D|----3-1-3-------------3-1----|----3-1-3--------------------|
A|-----------------------------|-----------------------------|
E|-----------------------------|-----------------------------|
                                 C         D
E|-----------------------------|-----------------------------|
B|-----------------------------|--------------------1--------|
G|----------1-0-0-0-1-0--------|----------1-3-3-3-3---0-1----|
D|----3-1-3-------------3-1----|----3-1-3--------------------|
A|-----------------------------|-----------------------------|
E|-----------------------------|-----------------------------|
                                 Surrender, surrender

[Ending]
E|------------------------------|------------------------------|
B|------------------------------|--------------------1---------|
G|----------1-0-0-0-1-0---------|----------1-3-3-3-3---0-1-----|
D|----3-1-3-------------3-1-----|----3-1-3---------------------|
A|------------------------------|------------------------------|
E|------------------------------|------------------------------|
  Hold me now and leave me never,Say you’ll stay with me forever



E|-----------------------------|-----------------------------|
B|-----------------------------|--------------------1--------|
G|----------1-0-0-0-1-0--------|----------1-3-3-3-3---0-1----|
D|----3-1-3-------------3-1----|----3-1-3--------------------|
A|-----------------------------|-----------------------------|
E|-----------------------------|-----------------------------|
  Then I                   surrender,     surrender

E|-----------------------------|-----------------------------|
B|-----------------------------|--------------------1--------|
G|----------1-0-0-0-1-0--------|----------1-3-3-3-3---0-1----|
D|----3-1-3-------------3-1----|----3-1-3--------------------|
A|-----------------------------|-----------------------------|
E|-----------------------------|-----------------------------|


E|-----------------------------|-----------------------------|
B|-----------------------------|--------------------1--------|
G|----------1-0-0-0-1-0--------|----------1-3-3-3-3---1-0----|
D|----3-1-3-------------3-1----|----3-1-3--------------------|
A|-----------------------------|-----------------------------|
E|-----------------------------|-----------------------------|
  Then I                   surrender,     surrender

C      D              Em         C
Ooh Ohh Ooh Ooh Ooh Ooh Ooh Ooh, Surrender 
Suggest correction
Creating personal tab
Creating personal tab
You can edit any tab online and save it as your Personal.

You can edit, replace or remove any tab part or add personal notes – all changes will be seen only by you.

Personal tabs can be accessed anytime from any device, even offline.
Learn more »
Give kudos to tab author, rate the tab!
1 2 3 4 5
comments
print report bad tab
guest
You may want to rate the tab now too:
select rating
Wanna post a correction for this tab? Suggest correction