Oops, an error
Loading. Please wait.

Jackie 2 Tab

43 views 1 this week
no commentswrite comment
1 2 3 4 5
please rate
add to favorites
launch autoscroll
font size
0
reset
how to read this tab
guitar tuner
Tab Pro tools
  • play this tab
  • loop segment
  • change instrument
  • show fretboard
  • metronome
×
Best way to learn
"Jackie 2"
Autoscroll
slow
fast
+/-
esc
set tempo
stop
Contributor
----------------------------------------------------------------------------
Title: Jackie 2
Author: Cash Tuesday
www.cashtuesday.com
----------------------------------------------------------------------------

Tabbed by: Lorenzo Price
Email: LPrice34@adelphia.net

Tuning: EADGBe

*  - Palm Mute
/\ - Slide
x  - Mute String

Order:
Intro
Pre-Verse
Verse
Chorus
Pre-Verse
Verse
Chorus
Solo
Chorus
Outro

Intro 
           
e|-----------------------------------------------|
B|-----------------------------------------------|
G|-9---------9---------9-131313-151515-9---------|
D|-9-999-777-9-999-777-9--x-x-x--x-x-x-9-999-777-|
A|-7-999-777-7-999-777-7-111111-131313-7-999-777-|
E|---777-555---777-555-------------------777-555-|

Pre-Verse
  2x
e|---------------------------------------------------------------|
B|---------------------------------------------------------------|
G|-9999999-------9999999-------9999999-131313-15-9999999---------|
D|-9999999-999-7-9999999-999-7-9999999--x-x-x--x-9999999-999-777-|
A|-7777777-999-7-7777777-999-7-7777777-111111-13-7777777-999-777-|
E|---------777-5---------777-5---------------------------777-555-|
                                                         **  **

Verse
  4x Palm Muted
e|-----------------------------------------------|
B|-----------------------------------------------|
G|-99999999-1111111111111111-131313131313131313--|
D|-99999999-1111111111111111-131313131313131313--|
A|-77777777-9-9-9-9-9-9-9-9--11111111111111111---|
E|-----------------------------------------------|

Chorus
  2x 
e|----------------------------------------|
B|----------------------------------------|
G|-9999999--------------------------------|
D|-9999999-9999999-11111111111111-7777777-|
A|-7777777-9999999-11111111111111-7777777-|
E|---------7777777-9-9-9-9-9-9-9--5555555-|

Solo
e|-----------------------------------------------------------|
B|-----------------------------------------------------------|
G|-----------------------------------------------------------|
D|-976-6--999-7-976-6--999-7-976-9/11--999-11-976-6--999-777-|
A|----9-7-999-7----9-7-999-7----9----9-999-11----9-7-999-777-|
E|--------777-5--------777-5-----------777--9--------777-555-|
                                                     **  **
e|----------------------------------------------------------------------------|
B|----------------------------------------------------------------------------|
G|-9-----99-----99-----99-----99-----99-----99-----99----------------9--------|
D|--97679--97679--97679--97679--97679--97679--97679--9767976----------9767976-|
A|-----------------------------------------------------------7~---------------|
E|-------------------------------------------------------------7~-9~----------|

Outro
e|---------------------------------------------------------------------------|
B|---------------------------------------------------------------------------|
G|-9999999-------9999999----------------111111-13-14-13-11-13-14-13-11-13-13-|
D|-9999999-999-7-9999999-999-11---------x-x-x---x--x--x--x--x--x--x--x--x-13-|
A|-7777777-999-7-7777777-999-11-7777777-9-9-9--11-12-11--9-11-12-11--9-11-11-|
E|---------777-5---------777-9-----------------------------------------------|
comments
We did not receive enough feedback on this tab! Please rate:
print report bad tab
1 2 3 4 5
I want to post or [tab]
guest
You may want to rate the tab now too:
select rating
Please do not post tabs as comments. Select "correction" instead!