Oops, an error
Loading. Please wait.

Time Machine Tab

107 views 1 this week
no commentswrite comment
1 2 3 4 5
please rate
add to favorites
launch autoscroll
font size
0
reset
how to read this tab
guitar tuner
Autoscroll
slow
fast
+/-
esc
set tempo
stop
Help us to improve Ultimate-Guitar.com Take our survey!
×
----------------------------------------------------------------------------
Title: Time Machine
Author: Cash Tuesday
www.cashtuesday.com
----------------------------------------------------------------------------

Tabbed by: Lorenzo Price
Email: LPrice34@adelphia.net

Tuning: EADGBe

.  - Palm Mute
/\ - Slide
h  - Hammer
p  - Pull
x  - Mute String

Order:
Intro
Pre-Verse
Verse
Chorus
Pre-Verse
Verse
Chorus
Solo
Chorus
Pre-Verse

Intro (Guitar 1)
           
e|-x-x-------------|
B|-3-2--- ---------|
G|-2-2--4--.......-|
D|---2--4-55555555-|
A|------2-55555555-|
E|--------33333333-|

Pre-Verse (Guitar 1)

e|----------2-------5-3-2h0---------2-------5-3-2h0-|
B|-3-2h3p2-5-3-2h3p2-------3-2h3p2-5-3-2h3p2--------|
G|--------------------------------------------------|
D|--------------------------------------------------|
A|--------------------------------------------------|
E|--------------------------------------------------|

Pre-Verse (Guitar 2)

  2x
e|----------------------------------------|
B|----------------------------------------|
G|-77799910----99910----9/10109----77/9\7-|
D|-77799910-77799910-9999/10109-55577/9\7-|
A|-5557779--7777779--9997/9-9-7-55555/7\5-|
E|----------555------777--------333-------|


Verse (Guitar 1)

  3x                                    1x
e|-x------x--------------------5-3-2h0-|-x--x-------------------------|
B|-3------2---------------------------3|-3--2-------------------------|
G|-2------2------4---------------------|-2--2-44444444----------------|
D|--------2------4------5--------------|-2--2-44444444-55555555-------|
A|---------------2------5--------------|------22222222-55555555-------|
E|----------------------3--------------|---------------33333333-------|

Verse (Guitar 2)

  4x
e|-------------------------------------|
B|-........----------------------------|
G|-77777777-........-........-........-|
D|-77777777-77777777-99999999-55555555-|
A|-55555555-77777777-99999999-55555555-|
E|----------55555555-77777777-33333333-|

Chorus (Guitar 1)

  2x                                   2x
e|------------------------------------|------------------------------------|
B|------------------------------------|------------------------------------|
G|-77777777---------------------------|77777777----------------------------|
D|-77777777-77777777-99999999-55555555|77777777-999/1111\9-9999999955555555|
A|-55555555-77777777-99999999-55555555|55555555-999/-x-x\9-9999999955555555|
E|----------55555555-77777777-33333333|---------777/-9-9\7-7777777733333333|

Chorus (Guitar2)

  4x
e|-------------------------------------|
B|-------------------------------------|
G|-77777777----------------------------|
D|-77777777-77777777-99999999-55555555-|
A|-55555555-77777777-99999999-55555555-|
E|----------55555555-77777777-33333333-|

Solo (Guitar 1)
    
e|--------------------------------------------------------------|
B|--...-------------------------...-----------------------------|
G|-77777--...---...--..--..----77777----...-----...-------------|
D|-77777-77777-99999-555/777/9-77777---77777---99999------------|
A|-55555-77777-99999-555/777/9-55555\2-77777---99999-----5/7--7-|
E|-------55555-77777-333/555/7---------55555\2-77777\2-33---55--|
    
e|----------------------------------------------------------|
B|---------15-----------------------------------------------|
G|-----14------14------14----------16-----------------------|
D|-2\12--12--12----14------14--16------14----12/14----14/16-|
A|---------------12--12--12--14--14--14--1010-----1212------|
E|----------------------------------------------------------|

e|----------------------------------------------------------|
B|---------15-----------------------------------------------|
G|-----14------14------14----------16-----------------------|
D|---12--12--12----14------14--16------14----12/14----0h2p0-|
A|---------------12--12--12--14--14--14--1010-----1212------|
E|----------------------------------------------------------|
comments
We did not receive enough feedback on this tab! Please rate:
print report bad tab
1 2 3 4 5
I want to post or [tab]
guest
You may want to rate the tab now too:
select rating
Please do not post tabs as comments. Select "correction" instead!