Oops, an error
Loading. Please wait.

Land Of Flower And Willow Tab

7 views 1 this week
no commentswrite comment
1 2 3 4 5
3 more votes to show rating
add to favorites
launch autoscroll
font size
0
reset
how to read this tab
guitar tuner
Autoscroll
slow
fast
+/-
esc
set tempo
stop
Help us to improve Ultimate-Guitar.com Take our survey!
×
Author
Difficulty
novice
Gitar 1, listen to song for timing and variations
Please correct any mistakes


[Intro]

e|-----------------------------------------------------------------------------------------------|
B|-----------------------------------------------------------------------------------------------|
G|-------------7-----7--7------------------------------------------------------------------------|
D|---7-----7-9------9--9--9--7---------7--7----------------------------5s7--5s7-------5s7---5s7--| 
A|-------9---------------------9-----9--9---9-8-7--9--7--5----5--5--5------------5--5------------|
E|----------------------------------------------------------7------------------------------------|


[Bridge]

e|------------------------------------------------------------------------------------------------------|
B|------------------------------------------------------------------------------------------------------|
G|------------------------------------------------------------------------------------------------------|
D|--9--9h7--9h7--9h7--------------------------------------------------------------5s7--5s7----5s7--5s7--|
A|-------------------h9------7--7h5--7h5--7h5-----7---9s7--9s7--9s7--5----5--5--5---------5-5-----------|
E|--------------------------------------------h7------------------------7-------------------------------|


[Tremolo picked part 1]
 
e|-----------------------------------------------------------------------------------------------|
B|-----------------------------------------------------------------------------------------------|
G|-------------7-----7--7------------------------------------------------------------------------|
D|---7-----7-9------9--9--9--7---------7--7----------------------------5s7--5s7-------5s7---5s7--|
A|-------9---------------------9-----9--9---9-8-7--9--7--5----5--5--5------------5--5------------|
E|----------------------------------------------------------7------------------------------------|


[Variation]

e|------------------------------------------------------------------------------------------------|
B|------------------------------------------------------------------------------------------------|
G|------------------------------------------------------------------------------------------------|
D|--9--9h7-9h7-9h7--------------------------------------------------------5s7--5s7------5s7--5s7--|
A|-----------------9------7--7h5-7h5-7h5-----7--9s7-9s7-9s7--5---5-5--5-------------5-5-----------|
E|---------------------------------------7---------------------7----------------------------------|


[Outro]

e|-----------------------------------------|
B|-----------------------------------------|
G|-----------------------------------------|
D|---------5s7--5s7-------5s7-5s7----------| 
A|---5--5------------5--5------------------|
E|-----------------------------------------|


************************************

| h  Hammer-on
| s  slide

************************************
Suggest correction
Give kudos to tab author, rate the tab!
1 2 3 4 5
comments
print report bad tab
guest
You may want to rate the tab now too:
select rating
Wanna post a correction for this tab? Suggest correction