Oops, an error
Loading. Please wait.

Misty Lady bass

version 1
version 1

Whole song

  • This is my first tab. Please don't write jerky comments.

Interactive

37 views 1 this week
no commentswrite comment
1 2 3 4 5
3 more votes to show rating
add to favorites
×
Save as Personal and add changes to this tab that will be seen only by you. Learn more ›
×
You can save this tab as Personal to edit and correct it or add notes. All changes will be seen only by you. Learn more »
launch autoscroll
font size
0
reset
guitar tuner
edit
Autoscroll
slow
fast
+/-
esc
set tempo
stop
About this tab version
This is my first tab. Please don't write jerky comments. Was this info helpful? Yes No
G|----9------------------------0--2--------|----7------------------------------------|
D|-----------------------------------------|-----------------------------7--9--------|
A|-7---------------------------------0--3--|-5-----0---------------------------0--5--|
E|-------0---2---2---3---3--3--------------|-----------7---7---8---8--8--------------|

G|----9------------------------0--2--------|----7-----7--------------5---------7-----|
D|-----------------------------------------|-----------------------------------------|
A|-7---------------------------------0--3--|-5-----5-----0---2---3------3--5------5--|
E|-------0---2---2---3---3--3--------------|-----------------------------------------|

G|----9------------------------0--2--------|----7------------------------------------|
D|-----------------------------------------|-----------------------------7--9--------|
A|-7---------------------------------0--3--|-5-----0---------------------------0--5--|
E|-------0---2---2---3---3--3--------------|-----------7---7---8---8--8--------------|

G|----9--------------------------------|----------------------7--9---------------|
D|-------------------------------------|----------------5--7---------------------|
A|-7--------------------------------5--|----------5--7------------------------5--|
E|-------0---2---2---3---3--3--5-------|----5--7-------------------------7-------|

G|----9------------------------0--2--------|----7------------------------------------|
D|-----------------------------------------|-----------------------------7--9--------|
A|-7---------------------------------0--3--|-5-----0---------------------------0--5--|
E|-------0---2---2---3---3--3--------------|-----------7---7---8---8--8--------------|

G|----9------------------------0--2--------|----7-----7--------------5---------7-----|
D|-----------------------------------------|-----------------------------------------|
A|-7---------------------------------0--3--|-5-----5-----0---2---3------3--5------5--|
E|-------0---2---2---3---3--3--------------|-----------------------------------------|

G|----9------------------------0--2--------|----7------------------------------------|
D|-----------------------------------------|-----------------------------7--9--------|
A|-7---------------------------------0--3--|-5-----0---------------------------0--3--|
E|-------0---2---2---3---3--3--------------|-----------7---7---8---8--8--------------|

G|----6------------------------4--6--------|----5--------------------------------|
D|-----------------------------------------|-------------------------------------|
A|-4-----4---4-------4---4--4--------2--2--|-3-----3---3-------3---3--3----------|
E|---------------2-------------------------|---------------3-------------2---2---|

G|---------------------4-------------|-------------------------3-------------|-------------------------2-----
D|-----------------------------------|---------------------------------------|-------------------------------2
A|-2---------------2------2--2-------|-1---1--1------------1------1--1-------|-0---0--0------------0------00--
E|---------2---------------------2---|-----------1---1--1----------------1---|-----------0---0--0-------------

G|-------------------------7-------------|-------------------------5-------------|
D|-0---0--0------------0------0--0-------|---------------------------------------|
A|-----------0---0--0----------------0---|-3---3--3------------3------3--3---4---|
E|---------------------------------------|-----------3---3--3--------------------|

G|---------------------------------------|----------------------------------|----------7--5-----0--2-------
D|-------------------------3-------------|----------------------------------|----0--0--------0--------0--2----
A|-5---5--5--------------------------5---|-6---6--6-----------------3----5--|-------------------------------
E|-----------5---5--5--1------1--1-------|-----------6---6--6--3------------|--------------------------------

G|----9------------------------0--2--------|----7------------------------------------|
D|-----------------------------------------|-----------------------------7--9--------|
A|-7---------------------------------0--3--|-5-----0---------------------------0--5--|
E|-------0---2---2---3---3--3--------------|-----------7---7---8---8--8--------------|

G|----9------------------------0--2--------|-----7---------4-----------------------|
D|-----------------------------------------|---------------------------------------|
A|-7---------------------------------0--3--|-5------0--2------2--3---3---2---2--2--|
E|-------0---2---2---3---3--3--------------|---------------------------------------|

G|----9------------------------0--2--------|----7------------------------------------|
D|-----------------------------------------|-----------------------------------------|
A|-7---------------------------------0--3--|-5-----0---------------------------0--5--|
E|-------0---2---2---3---3--3--------------|-----------7---7---8---8--8--5--7--------|

G|------------------------|----------------|-----------16---------|----------------------------|
D|------------------------|----------------|----------------------|----------------------------|
A|-3----2----0---------1--|-1------1----2--|-2---------------14---|----------------------------|
E|----------------0-------|----------------|----------------------|-3----3----4---5------------|

G|-------------------------------|------------------------------|-------------------------------|
D|-------------------------------|------------------------------|-------------------------------|
A|-----------------------5----7--|------------------------------|-----------------------5----7--|
E|-5----5----6---7---------------|-3------3----4---5------------|-5----5----6---7---------------|

G|----------------------------|-------------------------------|------------------------------|
D|----------------------------|-------------------------------|------------------------------|
A|----------------------------|-----------------------5----7--|------------------------------|
E|-3----3----4---5------------|-5----5----6---7---------------|-3------3----4---5------------|

G|-------------------------------|----9---------------------------|-------------------------------|
D|-------------------------------|--------------------------------|-------------------------------|
A|-----------------------5----7--|-7------------------------------|-----------------------5----7--|
E|-5----5----6---7---------------|----------3----4---5------------|-5----5----6---7---------------|

G|----------------------------|-------------------------------|------------------------------|
D|----------------------------|-------------------------------|------------------------------|
A|----------------------------|-----------------------5----7--|------------------------------|
E|-3----3----4---5------------|-5----5----6---7---------------|-----3--3----4---5------------|

G|---------------------------------|----------------------------|---------------------------------7--9--|
D|---------------------------------|----------------------------|---------------------------5--7--------|
A|-------------------------5----7--|----------------------------|---------------------5--7--------------|
E|-----5--5----6---7---------------|-3----3----4---5------------|-----5--5----6---7---------------------|

G|----------------------------|---------------------------------|----------------------------|
D|----------------------------|---------------------------------|----------------------------|
A|----------------------------|-------------------------5----7--|----------------------------|
E|-3----3----4---5------------|-----5--5----6---7---------------|-3----3----4---5------------|

G|---------------------------------|----------------------------|---------------------------------|
D|---------------------------------|----------------------------|---------------------------------|
A|-------------------------5----7--|----------------------------|-------------------------5----7--|
E|-----5--5----6---7---------------|-3----3----4---5------------|-----5--5----6---7---------------|

G|-------------------------------|----9--12-------------6-----7----------------|----9----------------------02-
D|-------------------------------|----------9--12---------------------------0--|-----------------------------
A|-------------------------------|----------------4--4-----5-----5--5--2-------|-7---------------------------0
E|-3----3----4---5-------5----7--|---------------------------------------------|-------0---2---2---3---3--3---

G|----7------------------------------------|----9------------------------0--2--------|
D|-----------------------------7--9--------|-----------------------------------------|
A|-5-----0---------------------------0--5--|-7---------------------------------0--3--|
E|-----------7---7---8---8--8--------------|-------0---2---2---3---3--3--------------|

G|-----7---------4-----------------------|----9------------------------0--2--------|
D|---------------------------------------|-----------------------------------------|
A|-5------0--2------2--3---3---2---2--5--|-7---------------------------------0--3--|
E|---------------------------------------|-------0---2---2---3---3--3--------------|

G|----7------------------------------------|------------------------|----------------|
D|-----------------------------------------|------------------------|----------------|
A|-5-----0---------------------------0--5--|-3----2----0---------1--|-1------1----2--|
E|-----------7---7---8---8--8--5--7--------|----------------0-------|----------------|

G|----------------|----9------------------------0--2--------|----7------------------------------------|
D|----------------|-----------------------------------------|-----------------------------7--9--------|
A|-2------2----5--|-7---------------------------------0--3--|-5-----0---------------------------0--5--|
E|----------------|-------0---2---2---3---3--3--------------|-----------7---7---8---8--8--------------|

G|----9------------------------0--2--------|----7-----7--------------5---------7-----|
D|-----------------------------------------|-----------------------------------------|
A|-7---------------------------------0--3--|-5-----5-----0---2---3------3--5------5--|
E|-------0---2---2---3---3--3--------------|-----------------------------------------|

G|----9------------------------0--2--------|----7------------------------------------|
D|-----------------------------------------|-----------------------------7--9--------|
A|-7---------------------------------0--3--|-5-----0---------------------------0--3--|
E|-------0---2---2---3---3--3--------------|-----------7---7---8---8--8--------------|

G|----6------------------------4--6--------|----5--------------------------------|
D|-----------------------------------------|-------------------------------------|
A|-4-----4---4-------4---4--4--------2--2--|-3-----3---3-------3---3--3----------|
E|---------------2-------------------------|---------------3-------------2---2---|

G|---------------------4-------------|-------------------------3-------------|-------------------------2-----
D|-----------------------------------|---------------------------------------|-------------------------------2
A|-2---------------2------2--2-------|-1---1--1------------1------1--1-------|-0---0--0------------0------0-0
E|---------2---------------------2---|-----------1---1--1----------------1---|-----------0---0--0------------

G|-------------------------7-------------|-------------------------5-------------|
D|-0---0--0------------0------0--0-------|---------------------------------------|
A|-----------0---0--0----------------0---|-3---3--3------------3------3--3---4---|
E|---------------------------------------|-----------3---3--3--------------------|

G|---------------------------------------|----------------------------------|-----------------------------|
D|-------------------------3-------------|----------------------------------|-----------------------------|
A|-5---5--5--------------------------5---|-6---6--6-----------------3----5--|-5---5--5--5-----------------|
E|-----------5---5--5--1------1--1-------|-----------6---6--6--3------------|--------------------5---17---|

G|----------------------------|-------------------------------|------------------------------|
D|----------------------------|-------------------------------|------------------------------|
A|----------------------------|-----------------------5----7--|------------------------------|
E|-3----3----4---5------------|-5----5----6---7---------------|-3------3----4---5------------|

G|-------------------------------|----------------------------|-------------------------------|
D|-------------------------------|----------------------------|-------------------------------|
A|-----------------------5----7--|----------------------------|-----------------------5----7--|
E|-5----5----6---7---------------|-3----3----4---5------------|-5----5----6---7---------------|

G|------------------------------|-------------------------------|----9---------------------------|
D|------------------------------|-------------------------------|--------------------------------|
A|------------------------------|-----------------------5----7--|-7------------------------------|
E|-3------3----4---5------------|-5----5----6---7---------------|----------3----4---5------------|

G|-------------------------------|----------------------------|-------------------------------|
D|-----------------------0----2--|----------------------------|-------------------------------|
A|------0----1---2---------------|----------------------------|-----------------------5----7--|
E|-------------------------------|-3----3----4---5------------|-5----5----6---7---------------|

G|----------------------------|-------------------------------|-------------------------------|
D|----------------------------|-------------------------------|-------------------------------|
A|----------------------------|-----------------------5----7--|-------------------------------|
E|-3----3----4---5------------|-5----5----6---7---------------|-3----3----4---5-------5----7--|

G|--------4-------|----------------|-----------------------|----------------|--------|
D|----------------|----------------|-----------------------|----------------|--------|
A|----------------|----------------|-----------------------|----------------|--------|
E|----------------|-3----5---------|-------5-------7-------|-3----5---------|--------|

G|----------------|-----------------------|----------------|----------------|----------------|
D|----------------|-----------------------|----------------|----------------|----------------|
A|----------------|-----------------------|----------------|----------------|----------------|
E|-3----5---------|-------5-------7-------|-3----5---------|--------7-------|-3----5---------|

G|-----------------------|----------------|--------|----------------|-----------------------|
D|-----------------------|----------------|--------|----------------|-----------------------|
A|-----------------------|----------------|--------|----------------|-----------------------|
E|-------5-------7-------|-3----5---------|--------|-3----5---------|-------5-------7-------|

G|------------------9--7------9--|-7---------------------|----------------|-----------------------|
D|-------------------------------|---------------9-------|----------------|-----------------------|
A|-------------------------------|-----------------------|----------------|-----------------------|
E|-3----5------------------------|-----------------------|-3----5---------|-------5-------7-------|

G|----------------|--------|--------------------|
D|----------------|--------|--------------------|
A|----------------|--------|--------------------|
E|-3----5---------|--------|-3----5-------------|
Suggest correction
Creating personal tab
Creating personal tab
You can edit any tab online and save it as your Personal.

You can edit, replace or remove any tab part or add personal notes – all changes will be seen only by you.

Personal tabs can be accessed anytime from any device, even offline.
Learn more »
Give kudos to tab author, rate the tab!
1 2 3 4 5
comments
print report bad tab
guest
You may want to rate the tab now too:
select rating
Wanna post a correction for this tab? Suggest correction