Oops, an error
Loading. Please wait.

Ill Buy That For A Dollar Bass Tab

116 views 1 this week
no commentswrite comment
1 2 3 4 5
3 more votes to show rating
add to favorites
launch autoscroll
font size
0
reset
guitar tuner
Autoscroll
slow
fast
+/-
esc
set tempo
stop
Help us to improve Ultimate-Guitar.com Take our survey!
×
Author
Tuning
D A D G B E
Intro (PALM MUTED)

G|-------|-------|-------|-------|
D|---0---|---0---|---0---|---0---|
A|-3-----|-3-----|-3-----|-3---02|
D|-----0-|-----0-|-----0-|-------|

THE VERSE IS THE SAME THING BUT WITH A SLIGHTLY DIFFERANT TIMING:

Verse and 1st bit of bridge (STILL PALM MUTED)

G|-----|-----|-----|-----|
D|-0---|-0---|-0---|-0---|
A|3----|3----|3----|3--02|
D|--0--|--0--|--0--|-----|

Prechorus 

G|--------|------|-----|         ---|
D|--------|------|-----|         ---|
A|-5-5-55-|5--55-|3--33|(SLLLIDE)8-8|
D|--------|------|-----|         ---|

CHORUS!!! 

G|------|----|--------------|---------------|----------------------------|
D|------|----|--------------|---------------|----------------------------|
A|------|----|--------------|---------------|----------------------------|
D|00----|10--|5-------------|0-000-5/10-1010|5-5-5555--5555-55-5555--5555|

2nd part of bridge (HOPIN' YOU'lL CATCH MY FALL...)

G|----|----|----|----|----|----|----|----|
D|----|----|----|----|----|----|----|----|
A|5555|1111|----|----|----|----|----|----|
D|----|----|5555|5555|8888|7777|8888|8888|


Outro

G|-----|------|-----|----|7p5-|------|-7-5-|------|------|----|
D|-----|------|-----|----|----|7p5---|-----|7-5---|------|----|
A|-----|------|-----|----|----|---8-5|-----|---8-5|5--555|5555|
D|00-00|10----|5----|-55-|----|------|-----|------|------|----|


http://www.casketsalesmen.com/
Suggest correction
Give kudos to tab author, rate the tab!
1 2 3 4 5
comments
print report bad tab
guest
You may want to rate the tab now too:
select rating
Wanna post a correction for this tab? Suggest correction