Oops, an error
Loading. Please wait.

Lilablau Bass Tab

49 views 15 this week
no commentswrite comment
1 2 3 4 5
3 more votes to show rating
add to favorites
launch autoscroll
font size
0
reset
guitar tuner
Autoscroll
slow
fast
+/-
esc
set tempo
stop
Help us to improve Ultimate-Guitar.com Take our survey!
×
Author
Difficulty
intermediate
 (0:19) [Verse]
                 
 G||----------------|----------------|-----------------|
 D||----------------|----------------|-----------------|
 A||----------------|-----5----5----3|---3-3-3---------|
 E||-1----1----1----|1---------------|-----------------|

 G||----------------|----------------|-----------------|
 D||----------------|----------------|-----------------|
 A||----------------|---------------3|---3-3-3---------|
 E||-1----1----1----|1----5----5-----|-----------------|

 (Pause until the 1:07)

 G||----------------|----------------|-----------------|
 D||----------------|----------------|-----------------|
 A||----------------|-----5----5----3|---3-3-3---------|
 E||-1----1----1----|1---------------|-----------------|

 G||----------------|----------------|-----------------|
 D||----------------|----------------|-----------------|
 A||----------------|---------------3|---3-3-3---------|
 E||-1----1----1----|1----5----5-----|-----------------|

 (1:55)[Bridge]This was hard to hear, so this sure isn't right but it sounds fine.  

 G||----------------|----------------|-----------------|
 D||----------------|----------------|-----------------|
 A||----------------|-----5----5----3|--3-3-3----------|
 E||-1----1----1----|1---------------|-----------------|

 G||----------------|----------------|-----------------|
 D||----------------|----------------|-----------------|
 A||----------------|---------------3|-3-3-3-3-3-------|
 E||-1----1----1----|1----5----5-----|-----------------|

 G||----------------|------------------------|----------------|
 D||----------------|-------------5--------5-|----------------|
 A||-----------9-9--|3-3------5-7------5-7---|3-3---5--3--5--3|
 E||-1----1---------|------5---------5-------|----------------|

 G||------------------------|---5-5-5-----------------------|-----------------|
 D||----------0-2-3-2--2--2-|-7-------7-5--------5--------5-|-----------------|
 A||--------3---------------|----------------5-7------5-7---|3-3---5--3--5--3-|
 E||-1----1-----------------|-------------5---------5-------|-----------------|

 G||----------------|------------------------|-----------------|
 D||----------------|--7--9-10~10-9-7--------|-----------------|
 A||-----------9-9--|9-----------------------|--3-3--5-5-------|
 E||-1----1---------|-----------------5----5-|-----------------|

 G||----------------|----------------|-----------------|
 D||----------------|----------------|-----------------|
 A||----------------|-----5----5----3|---3-3-3---------|
 E||-1----1----1----|1---------------|-----------------|

 G||----------------|----------------|-----------------|
 D||----------------|----------------|-----------------|
 A||----------------|---------------3|---3-3-3---------|
 E||-1----1----1----|1----5----5-----|---------1~------|
END 

Suggest correction
Give kudos to tab author, rate the tab!
1 2 3 4 5
comments
print report bad tab
guest
You may want to rate the tab now too:
select rating
Wanna post a correction for this tab? Suggest correction