Oops, an error
Loading. Please wait.

Michael X Tab

version 2
version 2

Intro

by Casper
208 views 1 this week
no commentswrite comment
1 2 3 4 5
3 more votes to show rating
add to favorites
×
Save as Personal and add changes to this tab that will be seen only by you. Learn more ›
×
You can save this tab as Personal to edit and correct it or add notes. All changes will be seen only by you. Learn more »
save as personal
new!
launch autoscroll
font size
0
reset
how to read this tab
guitar tuner
Autoscroll
slow
fast
+/-
esc
set tempo
stop
Author
Difficulty
intermediate
-------------------------------------------------------------------------------
                             Michael X - Casper
-------------------------------------------------------------------------------
Tabbed by: Mayo

Tuning: Standart

Intro + Verse

    C    C    C    C   Cadd9   C     C*  
e|--0----0----0----0-----0-----0-----3---------------------------------------|
B|--1----1----1----1-----3-----1-----1---------------------------------------|
G|--0----0----0----0-----0-----0-----0---------------------------------------|
D|-(2)--(2)--(2)--(2)---(2)---(2)---(2)--------------------------------------|
A|-(3)--(3)--(3)--(3)---(3)---(3)---(3)--------------------------------------|
E|---------------------------------------------------------------------------|

    Am   Am   Am   Am  Asus4   Am   Am*
e|--0----0----0----0-----0-----0-----3---------------------------------------|
B|--1----1----1----1-----3-----1-----1---------------------------------------|
G|--2----2----2----2-----2-----2-----2---------------------------------------|
D|-(2)--(2)--(2)--(2)---(2)---(2)---(2)--------------------------------------|
A|-(0)--(0)--(0)--(0)---(0)---(0)---(0)--------------------------------------|
E|---------------------------------------------------------------------------|

    G    G    G    G     G     G*    G
e|--3----3----3----3-----3-----0-----3---------------------------------------|
B|--3----3----3----3-----3-----3-----3---------------------------------------|
G|--0----0----0----0-----0-----0-----0---------------------------------------|
D|-(0)--(0)--(0)--(0)---(0)---(0)---(0)--------------------------------------|
A|-(2)--(2)--(2)--(2)---(2)---(2)---(2)--------------------------------------|
E|-(3)--(3)--(3)--(3)---(3)---(3)---(3)--------------------------------------|

    F    F    F    F     F6    F     F*  
e|--1----1----1----1-----1-----1-----3---------------------------------------|
B|--1----1----1----1-----3-----1-----1---------------------------------------|
G|--2----2----2----2-----2-----2-----2---------------------------------------|
D|-(3)--(3)--(3)--(3)---(3)---(3)---(3)--------------------------------------|
A|-(3)--(3)--(3)--(3)---(3)---(3)---(3)--------------------------------------|
E|-(1)--(1)--(1)--(1)---(1)---(1)---(1)--------------------------------------|

Suggest correction
Give kudos to tab author, rate the tab!
1 2 3 4 5
comments
print report bad tab
guest
You may want to rate the tab now too:
select rating
Wanna post a correction for this tab? Suggest correction