Oops, an error
Loading. Please wait.

Unzerbrechlich Bass Tab

2,634 views 3 this week
1 commentread comment
1 2 3 4 5
2 more votes to show rating
add to favorites
launch autoscroll
font size
0
reset
guitar tuner
Autoscroll
slow
fast
+/-
esc
set tempo
stop
Help us to improve Ultimate-Guitar.com Take our survey!
×
Difficulty
intermediate
Unzerbrechlich

Vers
G-------------------------|
D-------------------------|
A-------3---5-------3---5-|
E 4~-----------4~---------|

Refrain
G-----------------------------------|-----------------------------------|
D-----------------------------------|-----------------------------------|
A--------------------------------3—5|--------------------------------3—5|
E4—4-4-4-4-4-4-4-4-4-4--------------|4—4-4-4-4-4-4-4-4-4-4--------------|
Suggest correction
Give kudos to tab author, rate the tab!
1 2 3 4 5
comments
print report bad tab
1 comment total.
0 reply
nhpe92 94 May 14, 2013 04:47 PM

Vers
G-------------------------|
D-------------------------|
A-------3---6-------3---6-|
E 4~-----------4~---------|

Refrain
G-----------------------------------|-----------------------------------|
D-----------------------------------|-----------------------------------|
A--------------------------------3—6|--------------------------------3—6|
E4—4-4-4-4-4-4-4-4-4-4--------------|4—4-4-4-4-4-4-4-4-4-4--------------|

This is what they play live, i dont have the original here, but it should be right for that one too. This song is definitely´not intermediate, novice is more realistic.

guest
You may want to rate the tab now too:
select rating
Wanna post a correction for this tab? Suggest correction