Oops, an error
Loading. Please wait.

Hymn For The Greatest Generation intro tab

version 1
version 1

Intro

  • The B string is tuned to A. Saw a cover on youtube... Show more

Whole song

by Caspian
1,264 views 12 this week
3 commentsread comments
1 2 3 4 5
x 4
add to favorites
×
Save as Personal and add changes to this tab that will be seen only by you. Learn more ›
×
You can save this tab as Personal to edit and correct it or add notes. All changes will be seen only by you. Learn more »
launch autoscroll
font size
0
reset
how to read this tab
guitar tuner
edit
Autoscroll
slow
fast
+/-
esc
set tempo
stop
Author
Difficulty
This song is played in standard tuning other then the B string, which is tuned down to an A. 


[Intro]

e|---0--------0---------0--------0--------0--------0---------0--------0-----|
A|--------------------0---0----0---0----------------0------0---0----0-------|
G|--------------------------------------------------------------------------|
D|-11-11---7-9-9--2-4--4---4-4--4---4---11-11---7-9----2-4--4---4-4--4------|
A|-9-------5-7----4-5--------5----------9-------5-7----4-5--------5---------|
E|--------------------------------------------------------------------------|

e|----0-----------0----------------------0-----------------------------------|
A|---------------------------0--------0----0---------------------------------|
G|-11---11------4---4--6-----------------------------------------------------|
D|-12------12-7-6------7---2---2-2--4--4----4--------------------------------|
A|-12------12-7-7------7---4--------5----------------------------------------|
E|--------------0------------------------------------------------------------|

e|----0-----------0--------------0---------------0---------------------------|
A|---------------------------------------------------------------------------|
G|-11--11-6-9--11--11--14\13--11--11---------4----4--------------------------|
D|-12-----7-7--12-------------12-----14--11----------------------------------|
A|-12----------12------12-----12-------------7-7-----------------------------|
E|---------------------------------------------------------------------------|



************************************

| \  Slide down

************************************

            
            
Suggest correction
Creating personal tab
Creating personal tab
You can edit any tab online and save it as your Personal.

You can edit, replace or remove any tab part or add personal notes – all changes will be seen only by you.

Personal tabs can be accessed anytime from any device, even offline.
Learn more »
comments
print report bad tab
3 comments total.
0 reply
InfinitiMusic11 46 May 28, 2016 07:43 AM

Fantastic tab. Would love to see a accurate full version! Great job

0 reply
helpweresunk 10 Oct 30, 2016 02:13 PM

The only thing I see wrong here is on the sections where you're fretting 5 and 4 on the A and D strings, instead of playing an open B string, I think it's an A played on the G string (2nd fret). Otherwise this is pretty awesome :)

guest
You may want to rate the tab now too:
select rating
Wanna post a correction for this tab? Suggest correction