Oops, an error
Loading. Please wait.

Si Facile tab

version 1
version 1

Whole song

Interactive

41,617 views 342 this week
3 commentsread comments
1 2 3 4 5
x 31
add to favorites
×
Save as Personal and add changes to this tab that will be seen only by you. Learn more ›
×
You can save this tab as Personal to edit and correct it or add notes. All changes will be seen only by you. Learn more »
launch autoscroll
font size
0
reset
how to read this tab
guitar tuner
edit
Autoscroll
slow
fast
+/-
esc
set tempo
stop
Hey, this is my first tab ! The song is "si facile" from The Casseurs Flowters
BUT this is the basic riff, I didn't know the differents variations but that sound great without them (you can
write a comment please if you have them or if I write something wrong ^^)
You should try with the song to learn
Enjoy !
(sorry for my english, i'm a french frog)
You need a capo on the 3rd  fret and everything is written relative to the capo.

Chords used:
Am :x02210
G  :320003
C  :x32010

Basic riff (all song):

E---|-----------------------------------------------|
B---|----1-------------1-----1-1--------------------|
D---|----2------0------0-----0-0--------------------|
G---|--2-------0----0h2-----------------------------|
A---|-0----0--2---3-----3--2------------------------|
E---|-------------------------3---------------------|

But from ~2:27 to ~2:47 you can play the chords in this order : Am G C G (listen the song for the rythmic)

Thanx a lot guys ! :)
Spokequenouille

            
            
Suggest correction
Creating personal tab
Creating personal tab
You can edit any tab online and save it as your Personal.

You can edit, replace or remove any tab part or add personal notes – all changes will be seen only by you.

Personal tabs can be accessed anytime from any device, even offline.
Learn more »
comments
print report bad tab
3 comments total.
0 reply
sebastien.ferra 10 Dec 28, 2015 04:59 AM

Merci ça a l'air correct !

0 reply
jdeleglise 10 Aug 08, 2016 08:32 AM, edited on August 9 2016, 01:35 pm

I'am not sure about the end (doesn't sounds good to me, but really close):

-----------------------------|
------1-1--------------------|
------0-0--------------------|
-----------------------------|
3--2-------------------------|
-------3---------------------|

The rest is perfect

Edit : I just changed it to :

-----------------------------|
-----------------------------|
-----------------------------|
-----------------------------|
3--2-------------------------|
-------3---------------------|

And it feels better (to me)

guest
You may want to rate the tab now too:
select rating
Wanna post a correction for this tab? Suggest correction