Oops, an error
Loading. Please wait.

Toop Toop Bass Tab

version 2
version 2

Whole song

Interactive

3,379 views 1 this week
no commentswrite comment
1 2 3 4 5
please rate
add to favorites
launch autoscroll
font size
0
reset
guitar tuner
Tab Pro tools
  • play this tab
  • loop segment
  • change instrument
  • show fretboard
  • metronome
×
Best way to learn
"Toop Toop"
Autoscroll
slow
fast
+/-
esc
set tempo
stop
Contributor
Difficulty
intermediate
Cassius - Toop Toop

transcribed by Damian Smith (pondlife87@hotmail.com)

S - slap
P - pop

VERSE 1
                                                         P 

G|-------------------------------------------------------7h9-------|
D|-----------------------------------------------------------------|
A|-------------7-5-7--------------------------/9---7---------------|
E|-7---------------------------5-6-7-------------------------4-5-6-|

                                                      SP      SP
G|-----------------------------------------------------9-------9---|
D|----/9-----------------------------------------------------------|
A|---------9---7-5-7----------------------/9--/9---7--7-------7----|
E|-7---------------------------5-6-7-------------------------------|

CHORUS 1

G|---4-------2---------------2-----| x4
D|-------4-------4---2---4-------4-|
A|-2-------0---------------0-------|
E|-----2-------2---0---2-------2---|

VERSE 2

CHORUS 2

G|---4-------2---------------2-----| x4
D|-------4-------4---2---4-------4-|
A|-2-------0---------------0-------|
E|-----2-------2---0---2-------2---|

G|---4-2---2h4-2---------------2-----|---4-------2---------------2-----| x2
D|-------4-------4-----2---4-------4-|-------4-------4---2---4-------4-|
A|-2-------------------------0-------|-2-------0---------------0-------|
E|-----------------2-0---2-------2---|-----2-------2---0---2-------2---|

BREAK

G|-----------------------------------------------------------------|
D|-----------------------------------------------------------------|
A|----------/9-7-5-7--------------------------/9---7---------------|
E|-7---------------------------5-6-7---------------------------5-6-|

G|-----------------------------------------------------------------|
D|-----------------------------------------------------------------|
A|-------------7-5-7---------------------------7-5-7-----------0-1-|
E|-7-------------------------4-5-6-7-------------------------4-----|

OUTRO

G|---4-------2---------------2-----|
D|-------4-------4---2---4-------4-|
A|-2-------0---------------0-------|
E|-----2-------2---0---2-------2---|
comments
We did not receive enough feedback on this tab! Please rate:
print report bad tab
1 2 3 4 5
I want to post or [tab]
guest
You may want to rate the tab now too:
select rating
Please do not post tabs as comments. Select "correction" instead!